  0
SECTION
  2
HEADER
  9
$ACADVER
  1
AC1018
  9
$ACADMAINTVER
 70
   104
  9
$DWGCODEPAGE
  3
ANSI_1252
  9
$LASTSAVEDBY
  1
mlk
  9
$INSBASE
 10
0.0
 20
0.0
 30
0.0
  9
$EXTMIN
 10
-26.50500740153126
 20
-16.00144953548622
 30
-0.0015258207003583
  9
$EXTMAX
 10
136.6299785606458
 20
19.62601095167453
 30
0.0000000349246037
  9
$LIMMIN
 10
0.0
 20
0.0
  9
$LIMMAX
 10
12.0
 20
9.0
  9
$ORTHOMODE
 70
     0
  9
$REGENMODE
 70
     1
  9
$FILLMODE
 70
     1
  9
$QTEXTMODE
 70
     0
  9
$MIRRTEXT
 70
     0
  9
$LTSCALE
 40
70.0
  9
$ATTMODE
 70
     1
  9
$TEXTSIZE
 40
24.0
  9
$TRACEWID
 40
0.05
  9
$TEXTSTYLE
  7
Standard
  9
$CLAYER
  8
0
  9
$CELTYPE
  6
ByLayer
  9
$CECOLOR
 62
   256
  9
$CELTSCALE
 40
1.0
  9
$DISPSILH
 70
     0
  9
$DIMSCALE
 40
180.0
  9
$DIMASZ
 40
0.18
  9
$DIMEXO
 40
0.0625
  9
$DIMDLI
 40
0.38
  9
$DIMRND
 40
0.0
  9
$DIMDLE
 40
0.0
  9
$DIMEXE
 40
0.18
  9
$DIMTP
 40
0.0
  9
$DIMTM
 40
0.0
  9
$DIMTXT
 40
24.0
  9
$DIMCEN
 40
0.09
  9
$DIMTSZ
 40
0.0
  9
$DIMTOL
 70
     0
  9
$DIMLIM
 70
     0
  9
$DIMTIH
 70
     1
  9
$DIMTOH
 70
     1
  9
$DIMSE1
 70
     0
  9
$DIMSE2
 70
     0
  9
$DIMTAD
 70
     0
  9
$DIMZIN
 70
     0
  9
$DIMBLK
  1

  9
$DIMASO
 70
     1
  9
$DIMSHO
 70
     1
  9
$DIMPOST
  1
\X
  9
$DIMAPOST
  1
M
  9
$DIMALT
 70
     1
  9
$DIMALTD
 70
     2
  9
$DIMALTF
 40
0.0254
  9
$DIMLFAC
 40
1.0
  9
$DIMTOFL
 70
     0
  9
$DIMTVP
 40
0.0
  9
$DIMTIX
 70
     0
  9
$DIMSOXD
 70
     0
  9
$DIMSAH
 70
     0
  9
$DIMBLK1
  1

  9
$DIMBLK2
  1

  9
$DIMSTYLE
  2
Standard
  9
$DIMCLRD
 70
     0
  9
$DIMCLRE
 70
     0
  9
$DIMCLRT
 70
     0
  9
$DIMTFAC
 40
1.0
  9
$DIMGAP
 40
0.09
  9
$DIMJUST
 70
     0
  9
$DIMSD1
 70
     0
  9
$DIMSD2
 70
     0
  9
$DIMTOLJ
 70
     1
  9
$DIMTZIN
 70
     0
  9
$DIMALTZ
 70
     0
  9
$DIMALTTZ
 70
     0
  9
$DIMUPT
 70
     0
  9
$DIMDEC
 70
     1
  9
$DIMTDEC
 70
     1
  9
$DIMALTU
 70
     2
  9
$DIMALTTD
 70
     2
  9
$DIMTXSTY
  7
Standard
  9
$DIMAUNIT
 70
     0
  9
$DIMADEC
 70
     0
  9
$DIMALTRND
 40
0.0
  9
$DIMAZIN
 70
     0
  9
$DIMDSEP
 70
    46
  9
$DIMATFIT
 70
     3
  9
$DIMFRAC
 70
     0
  9
$DIMLDRBLK
  1

  9
$DIMLUNIT
 70
     3
  9
$DIMLWD
 70
    -2
  9
$DIMLWE
 70
    -2
  9
$DIMTMOVE
 70
     0
  9
$LUNITS
 70
     4
  9
$LUPREC
 70
     4
  9
$SKETCHINC
 40
0.1
  9
$FILLETRAD
 40
0.0
  9
$AUNITS
 70
     0
  9
$AUPREC
 70
     0
  9
$MENU
  1
.
  9
$ELEVATION
 40
0.0
  9
$PELEVATION
 40
0.0
  9
$THICKNESS
 40
0.0
  9
$LIMCHECK
 70
     0
  9
$CHAMFERA
 40
0.0
  9
$CHAMFERB
 40
0.0
  9
$CHAMFERC
 40
0.0
  9
$CHAMFERD
 40
0.0
  9
$SKPOLY
 70
     0
  9
$TDCREATE
 40
2453356.423484514
  9
$TDUCREATE
 40
2453356.590151181
  9
$TDUPDATE
 40
2456085.664721493
  9
$TDUUPDATE
 40
2456085.831388160
  9
$TDINDWG
 40
1.3944422685
  9
$TDUSRTIMER
 40
1.3944419792
  9
$USRTIMER
 70
     1
  9
$ANGBASE
 50
0.0
  9
$ANGDIR
 70
     0
  9
$PDMODE
 70
     0
  9
$PDSIZE
 40
0.0
  9
$PLINEWID
 40
0.0
  9
$SPLFRAME
 70
     0
  9
$SPLINETYPE
 70
     6
  9
$SPLINESEGS
 70
     8
  9
$HANDSEED
  5
3175
  9
$SURFTAB1
 70
     6
  9
$SURFTAB2
 70
     6
  9
$SURFTYPE
 70
     6
  9
$SURFU
 70
     6
  9
$SURFV
 70
     6
  9
$UCSBASE
  2

  9
$UCSNAME
  2

  9
$UCSORG
 10
0.0
 20
0.0
 30
0.0
  9
$UCSXDIR
 10
1.0
 20
0.0
 30
0.0
  9
$UCSYDIR
 10
0.0
 20
1.0
 30
0.0
  9
$UCSORTHOREF
  2

  9
$UCSORTHOVIEW
 70
     0
  9
$UCSORGTOP
 10
0.0
 20
0.0
 30
0.0
  9
$UCSORGBOTTOM
 10
0.0
 20
0.0
 30
0.0
  9
$UCSORGLEFT
 10
0.0
 20
0.0
 30
0.0
  9
$UCSORGRIGHT
 10
0.0
 20
0.0
 30
0.0
  9
$UCSORGFRONT
 10
0.0
 20
0.0
 30
0.0
  9
$UCSORGBACK
 10
0.0
 20
0.0
 30
0.0
  9
$PUCSBASE
  2

  9
$PUCSNAME
  2

  9
$PUCSORG
 10
0.0
 20
0.0
 30
0.0
  9
$PUCSXDIR
 10
1.0
 20
0.0
 30
0.0
  9
$PUCSYDIR
 10
0.0
 20
1.0
 30
0.0
  9
$PUCSORTHOREF
  2

  9
$PUCSORTHOVIEW
 70
     0
  9
$PUCSORGTOP
 10
0.0
 20
0.0
 30
0.0
  9
$PUCSORGBOTTOM
 10
0.0
 20
0.0
 30
0.0
  9
$PUCSORGLEFT
 10
0.0
 20
0.0
 30
0.0
  9
$PUCSORGRIGHT
 10
0.0
 20
0.0
 30
0.0
  9
$PUCSORGFRONT
 10
0.0
 20
0.0
 30
0.0
  9
$PUCSORGBACK
 10
0.0
 20
0.0
 30
0.0
  9
$USERI1
 70
     0
  9
$USERI2
 70
     0
  9
$USERI3
 70
     0
  9
$USERI4
 70
     0
  9
$USERI5
 70
     0
  9
$USERR1
 40
0.0
  9
$USERR2
 40
0.0
  9
$USERR3
 40
0.0
  9
$USERR4
 40
0.0
  9
$USERR5
 40
0.0
  9
$WORLDVIEW
 70
     1
  9
$SHADEDGE
 70
     3
  9
$SHADEDIF
 70
    70
  9
$TILEMODE
 70
     1
  9
$MAXACTVP
 70
    64
  9
$PINSBASE
 10
0.0
 20
0.0
 30
0.0
  9
$PLIMCHECK
 70
     0
  9
$PEXTMIN
 10
1.000000000000000E+20
 20
1.000000000000000E+20
 30
1.000000000000000E+20
  9
$PEXTMAX
 10
-1.000000000000000E+20
 20
-1.000000000000000E+20
 30
-1.000000000000000E+20
  9
$PLIMMIN
 10
0.0
 20
0.0
  9
$PLIMMAX
 10
12.0
 20
9.0
  9
$UNITMODE
 70
     0
  9
$VISRETAIN
 70
     1
  9
$PLINEGEN
 70
     0
  9
$PSLTSCALE
 70
     1
  9
$TREEDEPTH
 70
  3020
  9
$CMLSTYLE
  2
Standard
  9
$CMLJUST
 70
     0
  9
$CMLSCALE
 40
1.0
  9
$PROXYGRAPHICS
 70
     1
  9
$MEASUREMENT
 70
     0
  9
$CELWEIGHT
370
    -1
  9
$ENDCAPS
280
     0
  9
$JOINSTYLE
280
     0
  9
$LWDISPLAY
290
     0
  9
$INSUNITS
 70
     1
  9
$HYPERLINKBASE
  1

  9
$STYLESHEET
  1
HLV LAYOUTS HP 5100.CTB
  9
$XEDIT
290
     1
  9
$CEPSNTYPE
380
     0
  9
$PSTYLEMODE
290
     1
  9
$FINGERPRINTGUID
  2
{B95F5779-B665-412D-856F-5D4CCA842D26}
  9
$VERSIONGUID
  2
{53969596-DF00-4307-8D7F-ED1D3E29E971}
  9
$EXTNAMES
290
     1
  9
$PSVPSCALE
 40
0.0
  9
$OLESTARTUP
290
     0
  9
$SORTENTS
280
   127
  9
$INDEXCTL
280
     0
  9
$HIDETEXT
280
     1
  9
$XCLIPFRAME
290
     0
  9
$HALOGAP
280
     0
  9
$OBSCOLOR
 70
   257
  9
$OBSLTYPE
280
     0
  9
$INTERSECTIONDISPLAY
280
     0
  9
$INTERSECTIONCOLOR
 70
   257
  9
$DIMASSOC
280
     2
  9
$PROJECTNAME
  1

  0
ENDSEC
  0
SECTION
  2
CLASSES
  0
CLASS
  1
ACDBDICTIONARYWDFLT
  2
AcDbDictionaryWithDefault
  3
ObjectDBX Classes
 90
        0
 91
        1
280
     0
281
     0
  0
CLASS
  1
TABLESTYLE
  2
AcDbTableStyle
  3
ObjectDBX Classes
 90
     4095
 91
        1
280
     0
281
     0
  0
CLASS
  1
SORTENTSTABLE
  2
AcDbSortentsTable
  3
ObjectDBX Classes
 90
        0
 91
       10
280
     0
281
     0
  0
CLASS
  1
DIMASSOC
  2
AcDbDimAssoc
  3
"AcDbDimAssoc|Product Desc:     AcDim ARX App For Dimension|Company:          Autodesk, Inc.|WEB Address:      www.autodesk.com"
 90
        0
 91
        0
280
     0
281
     0
  0
CLASS
  1
DICTIONARYVAR
  2
AcDbDictionaryVar
  3
ObjectDBX Classes
 90
        0
 91
        8
280
     0
281
     0
  0
CLASS
  1
MATERIAL
  2
AcDbMaterial
  3
ObjectDBX Classes
 90
     1153
 91
        3
280
     0
281
     0
  0
CLASS
  1
VISUALSTYLE
  2
AcDbVisualStyle
  3
ObjectDBX Classes
 90
     4095
 91
       24
280
     0
281
     0
  0
CLASS
  1
SCALE
  2
AcDbScale
  3
ObjectDBX Classes
 90
     1153
 91
       17
280
     0
281
     0
  0
CLASS
  1
MLEADERSTYLE
  2
AcDbMLeaderStyle
  3
ACDB_MLEADERSTYLE_CLASS
 90
     4095
 91
        1
280
     0
281
     0
  0
CLASS
  1
CELLSTYLEMAP
  2
AcDbCellStyleMap
  3
ObjectDBX Classes
 90
     1152
 91
        2
280
     0
281
     0
  0
CLASS
  1
AEC_REFEDIT_STATUS_TRACKER
  2
AecDbRefEditStatusTracker
  3
AecArchBase60|Product Desc: Autodesk Architectural Desktop 2007 |Company: Autodesk,Inc. |WEB Address: www.autodesk.com
 90
      129
 91
        0
280
     0
281
     0
  0
CLASS
  1
NPOCOLLECTION
  2
AcDbImpNonPersistentObjectsCollection
  3
ObjectDBX Classes
 90
     1153
 91
        0
280
     0
281
     0
  0
ENDSEC
  0
SECTION
  2
TABLES
  0
TABLE
  2
VPORT
  5
8
102
{ACAD_XDICTIONARY
360
2D70
102
}
330
0
100
AcDbSymbolTable
 70
     1
  0
VPORT
  5
2CB0
330
8
100
AcDbSymbolTableRecord
100
AcDbViewportTableRecord
  2
*Active
 70
     0
 10
0.0
 20
0.0
 11
1.0
 21
1.0
 12
55.06248557955725
 22
1.812280708094153
 13
0.0
 23
0.0
 14
0.5
 24
0.5
 15
0.5
 25
0.5
 16
0.0
 26
0.0
 36
1.0
 17
0.0
 27
0.0
 37
0.0
 40
71.30590470923124
 41
2.295042321644498
 42
50.0
 43
0.0
 44
0.0
 50
0.0
 51
0.0
 71
     0
 72
  1000
 73
     1
 74
     3
 75
     0
 76
     0
 77
     0
 78
     0
281
     0
 65
     1
110
0.0
120
0.0
130
0.0
111
1.0
121
0.0
131
0.0
112
0.0
122
1.0
132
0.0
 79
     0
146
0.0
  0
ENDTAB
  0
TABLE
  2
LTYPE
  5
5
330
0
100
AcDbSymbolTable
 70
     3
  0
LTYPE
  5
14
330
5
100
AcDbSymbolTableRecord
100
AcDbLinetypeTableRecord
  2
ByBlock
 70
     0
  3

 72
    65
 73
     0
 40
0.0
  0
LTYPE
  5
15
330
5
100
AcDbSymbolTableRecord
100
AcDbLinetypeTableRecord
  2
ByLayer
 70
     0
  3

 72
    65
 73
     0
 40
0.0
  0
LTYPE
  5
16
330
5
100
AcDbSymbolTableRecord
100
AcDbLinetypeTableRecord
  2
Continuous
 70
     0
  3
Solid line
 72
    65
 73
     0
 40
0.0
  0
LTYPE
  5
191
330
5
100
AcDbSymbolTableRecord
100
AcDbLinetypeTableRecord
  2
CENTER
 70
     0
  3
Center ____ _ ____ _ ____ _ ____ _ ____ _ ____
 72
    65
 73
     4
 40
2.0
 49
1.25
 74
     0
 49
-0.25
 74
     0
 49
0.25
 74
     0
 49
-0.25
 74
     0
  0
LTYPE
  5
C77
330
5
100
AcDbSymbolTableRecord
100
AcDbLinetypeTableRecord
  2
HIDDEN
 70
     0
  3
Hidden __ __ __ __ __ __ __ __ __ __ __ __ __ _
 72
    65
 73
     2
 40
0.375
 49
0.25
 74
     0
 49
-0.125
 74
     0
  0
ENDTAB
  0
TABLE
  2
LAYER
  5
2
102
{ACAD_XDICTIONARY
360
179
102
}
330
0
100
AcDbSymbolTable
 70
    13
  0
LAYER
  5
10
102
{ACAD_XDICTIONARY
360
2DB3
102
}
330
2
100
AcDbSymbolTableRecord
100
AcDbLayerTableRecord
  2
0
 70
     0
 62
     7
  6
Continuous
370
    -3
390
F
  0
LAYER
  5
35
330
2
100
AcDbSymbolTableRecord
100
AcDbLayerTableRecord
  2
Defpoints
 70
     0
 62
     7
  6
Continuous
290
     0
370
    -3
390
F
  0
LAYER
  5
15D
102
{ACAD_XDICTIONARY
360
2DB5
102
}
330
2
100
AcDbSymbolTableRecord
100
AcDbLayerTableRecord
  2
Center Lines
 70
     0
 62
     2
  6
CENTER
370
    -3
390
F
  0
LAYER
  5
654
102
{ACAD_XDICTIONARY
360
2DB9
102
}
330
2
100
AcDbSymbolTableRecord
100
AcDbLayerTableRecord
  2
Radiant Tubes
 70
     0
 62
     7
  6
HIDDEN
370
    -3
390
F
  0
LAYER
  5
C78
102
{ACAD_XDICTIONARY
360
2DBB
102
}
330
2
100
AcDbSymbolTableRecord
100
AcDbLayerTableRecord
  2
COMBUSTION Radiant Tubes
 70
     0
 62
     1
  6
HIDDEN
370
    -3
390
F
  0
LAYER
  5
C79
102
{ACAD_XDICTIONARY
360
2DBD
102
}
330
2
100
AcDbSymbolTableRecord
100
AcDbLayerTableRecord
  2
COMBUSTION Reflector
 70
     0
 62
     1
  6
Continuous
370
    -3
390
F
1001
AcAecLayerStandard
1000

1000

  0
LAYER
  5
C7A
102
{ACAD_XDICTIONARY
360
2DBF
102
}
330
2
100
AcDbSymbolTableRecord
100
AcDbLayerTableRecord
  2
BURNER Radiant Tubes
 70
     0
 62
     3
  6
HIDDEN
370
    -3
390
F
  0
LAYER
  5
C7C
102
{ACAD_XDICTIONARY
360
2DC1
102
}
330
2
100
AcDbSymbolTableRecord
100
AcDbLayerTableRecord
  2
Reflector
 70
     0
 62
     7
  6
Continuous
370
    -3
390
F
1001
AcAecLayerStandard
1000

1000

  0
LAYER
  5
2F94
330
2
100
AcDbSymbolTableRecord
100
AcDbLayerTableRecord
  2
V3 Burner Box
 70
     0
 62
   191
  6
CENTER
370
    -3
390
F
1001
AcAecLayerStandard
1000

1000

1001
AcCmTransparency
1071
        0
  0
LAYER
  5
3047
330
2
100
AcDbSymbolTableRecord
100
AcDbLayerTableRecord
  2
Burners
 70
     0
 62
     4
  6
Continuous
370
    -3
390
F
  0
LAYER
  5
3048
330
2
100
AcDbSymbolTableRecord
100
AcDbLayerTableRecord
  2
Burner
 70
     0
 62
     4
  6
Continuous
370
    -3
390
F
  0
LAYER
  5
30D4
330
2
100
AcDbSymbolTableRecord
100
AcDbLayerTableRecord
  2
TF1B Radiant Tubes
 70
     0
 62
     6
  6
HIDDEN
370
    -3
390
F
  0
LAYER
  5
30D5
330
2
100
AcDbSymbolTableRecord
100
AcDbLayerTableRecord
  2
RU Reflector
 70
     0
 62
     6
  6
Continuous
370
    -3
390
F
1001
AcAecLayerStandard
1000

1000

  0
ENDTAB
  0
TABLE
  2
STYLE
  5
3
330
0
100
AcDbSymbolTable
 70
     1
  0
STYLE
  5
11
330
3
100
AcDbSymbolTableRecord
100
AcDbTextStyleTableRecord
  2
Standard
 70
     0
 40
24.0
 41
1.0
 50
0.0
 71
     0
 42
24.0
  3
arial.ttf
  4

1001
ACAD
1000
Arial
1071
       34
  0
ENDTAB
  0
TABLE
  2
VIEW
  5
6
330
0
100
AcDbSymbolTable
 70
     0
  0
ENDTAB
  0
TABLE
  2
UCS
  5
7
330
0
100
AcDbSymbolTable
 70
     0
  0
ENDTAB
  0
TABLE
  2
APPID
  5
9
330
0
100
AcDbSymbolTable
 70
     9
  0
APPID
  5
12
330
9
100
AcDbSymbolTableRecord
100
AcDbRegAppTableRecord
  2
ACAD
 70
     0
  0
APPID
  5
4F
330
9
100
AcDbSymbolTableRecord
100
AcDbRegAppTableRecord
  2
ACAD_DSTYLE_DIMTEXT_FILL
 70
     0
  0
APPID
  5
178
330
9
100
AcDbSymbolTableRecord
100
AcDbRegAppTableRecord
  2
AcAecLayerStandard
 70
     0
  0
APPID
  5
3A2
330
9
100
AcDbSymbolTableRecord
100
AcDbRegAppTableRecord
  2
ACAD_PSEXT
 70
     0
  0
APPID
  5
1A58
330
9
100
AcDbSymbolTableRecord
100
AcDbRegAppTableRecord
  2
ACAD_EXEMPT_FROM_CAD_STANDARDS
 70
     0
  0
APPID
  5
2D05
330
9
100
AcDbSymbolTableRecord
100
AcDbRegAppTableRecord
  2
ACAD_DSTYLE_DIMJAG
 70
     0
  0
APPID
  5
2D06
330
9
100
AcDbSymbolTableRecord
100
AcDbRegAppTableRecord
  2
ACAD_DSTYLE_DIMTALN
 70
     0
  0
APPID
  5
2DA6
330
9
100
AcDbSymbolTableRecord
100
AcDbRegAppTableRecord
  2
ACAD_MLEADERVER
 70
     0
  0
APPID
  5
2F95
330
9
100
AcDbSymbolTableRecord
100
AcDbRegAppTableRecord
  2
AcCmTransparency
 70
     0
  0
ENDTAB
  0
TABLE
  2
DIMSTYLE
  5
A
330
0
100
AcDbSymbolTable
 70
     1
100
AcDbDimStyleTable
 71
     1
340
2B
  0
DIMSTYLE
105
2B
330
A
100
AcDbSymbolTableRecord
100
AcDbDimStyleTableRecord
  2
Standard
 70
     0
271
     3
272
     3
340
11
  0
ENDTAB
  0
TABLE
  2
BLOCK_RECORD
  5
1
330
0
100
AcDbSymbolTable
 70
    10
  0
BLOCK_RECORD
  5
23
102
{ACAD_XDICTIONARY
360
32
102
}
330
1
100
AcDbSymbolTableRecord
100
AcDbBlockTableRecord
  2
*Model_Space
340
26
  0
BLOCK_RECORD
  5
1F
330
1
100
AcDbSymbolTableRecord
100
AcDbBlockTableRecord
  2
*Paper_Space
340
22
  0
BLOCK_RECORD
  5
27
330
1
100
AcDbSymbolTableRecord
100
AcDbBlockTableRecord
  2
*Paper_Space0
340
2A
  0
BLOCK_RECORD
  5
161
330
1
100
AcDbSymbolTableRecord
100
AcDbBlockTableRecord
  2
layers
340
0
102
{BLKREFS
331
164
331
47F
331
67A
331
8ED
331
1779
331
195F
331
1964
331
1C38
331
1C5C
331
1CA2
331
1CC6
331
1CDA
331
2116
331
21A1
331
21F9
331
222E
331
2277
331
23BF
331
2432
331
245F
331
2A47
331
2B40
331
2B73
331
2B78
331
2E3A
331
2E4F
331
304B
331
2FFC
331
3021
331
309B
331
30C3
331
312D
102
}
1001
ACAD
1000
DesignCenter Data
1002
{
1070
     1
1070
     1
1002
}
  0
BLOCK_RECORD
  5
2E34
102
{ACAD_XDICTIONARY
360
2E35
102
}
330
1
100
AcDbSymbolTableRecord
100
AcDbBlockTableRecord
  2
4 in - 10 ft Tube-RR
340
0
102
{BLKREFS
331
305B
102
}
1001
ACAD
1000
DesignCenter Data
1002
{
1070
     1
1070
     1
1002
}
  0
BLOCK_RECORD
  5
2E4B
102
{ACAD_XDICTIONARY
360
2E4C
102
}
330
1
100
AcDbSymbolTableRecord
100
AcDbBlockTableRecord
  2
4 in V3 BURNER BOX
340
0
1001
ACAD
1000
DesignCenter Data
1002
{
1070
     1
1070
     1
1002
}
  0
BLOCK_RECORD
  5
2F96
102
{ACAD_XDICTIONARY
360
2FAB
102
}
330
1
100
AcDbSymbolTableRecord
100
AcDbBlockTableRecord
  2
4 in - 20 ft Assy
340
0
1001
ACAD
1000
DesignCenter Data
1002
{
1070
     1
1070
     1
1002
}
  0
BLOCK_RECORD
  5
2FF6
102
{ACAD_XDICTIONARY
360
2FF7
102
}
330
1
100
AcDbSymbolTableRecord
100
AcDbBlockTableRecord
  2
BURNER BOX
340
0
1001
ACAD
1000
DesignCenter Data
1002
{
1070
     1
1070
     1
1002
}
  0
BLOCK_RECORD
  5
301C
102
{ACAD_XDICTIONARY
360
301D
102
}
330
1
100
AcDbSymbolTableRecord
100
AcDbBlockTableRecord
  2
4 in BURNER BOX
340
0
102
{BLKREFS
331
305C
331
313F
102
}
1001
ACAD
1000
DesignCenter Data
1002
{
1070
     1
1070
     1
1002
}
  0
BLOCK_RECORD
  5
3096
102
{ACAD_XDICTIONARY
360
3097
102
}
330
1
100
AcDbSymbolTableRecord
100
AcDbBlockTableRecord
  2
RUP
340
0
102
{BLKREFS
331
313D
102
}
1001
ACAD
1000
DesignCenter Data
1002
{
1070
     1
1070
     1
1002
}
  0
BLOCK_RECORD
  5
30BD
102
{ACAD_XDICTIONARY
360
30BE
102
}
330
1
100
AcDbSymbolTableRecord
100
AcDbBlockTableRecord
  2
4 in - 10 ft Tube
340
0
102
{BLKREFS
331
313E
102
}
1001
ACAD
1000
DesignCenter Data
1002
{
1070
     1
1070
     1
1002
}
  0
BLOCK_RECORD
  5
30D6
102
{ACAD_XDICTIONARY
360
30EC
102
}
330
1
100
AcDbSymbolTableRecord
100
AcDbBlockTableRecord
  2
4 in - 20 ft U-Tube
340
0
102
{BLKREFS
331
30F0
102
}
1001
ACAD
1000
DesignCenter Data
1002
{
1070
     1
1070
     1
1002
}
  0
ENDTAB
  0
ENDSEC
  0
SECTION
  2
BLOCKS
  0
BLOCK
  5
24
330
23
100
AcDbEntity
  8
0
100
AcDbBlockBegin
  2
*Model_Space
 70
     0
 10
0.0
 20
0.0
 30
0.0
  3
*Model_Space
  1

  0
ENDBLK
  5
25
330
23
100
AcDbEntity
  8
0
100
AcDbBlockEnd
  0
BLOCK
  5
20
330
1F
100
AcDbEntity
 67
     1
  8
0
100
AcDbBlockBegin
  2
*Paper_Space
 70
     0
 10
0.0
 20
0.0
 30
0.0
  3
*Paper_Space
  1

  0
ENDBLK
  5
21
330
1F
100
AcDbEntity
 67
     1
  8
0
100
AcDbBlockEnd
  0
BLOCK
  5
28
330
27
100
AcDbEntity
 67
     1
  8
0
100
AcDbBlockBegin
  2
*Paper_Space0
 70
     0
 10
0.0
 20
0.0
 30
0.0
  3
*Paper_Space0
  1

  0
ENDBLK
  5
29
330
27
100
AcDbEntity
 67
     1
  8
0
100
AcDbBlockEnd
  0
BLOCK
  5
162
330
161
100
AcDbEntity
  8
0
100
AcDbBlockBegin
  2
layers
 70
     0
 10
0.0
 20
0.0
 30
0.0
  3
layers
  1

  0
ENDBLK
  5
163
330
161
100
AcDbEntity
  8
0
100
AcDbBlockEnd
  0
BLOCK
  5
2E37
330
2E34
100
AcDbEntity
  8
0
100
AcDbBlockBegin
  2
4 in - 10 ft Tube-RR
 70
     0
 10
0.0
 20
0.0
 30
0.0
  3
4 in - 10 ft Tube-RR
  1

  0
LINE
  5
2E38
330
2E34
100
AcDbEntity
  8
Center Lines
100
AcDbLine
 10
111.9291529401175
 20
40.00676650569547
 30
0.0
 11
-9.587724760467622
 21
40.00676650569551
 31
0.0
  0
LINE
  5
2E39
330
2E34
100
AcDbEntity
  8
Radiant Tubes
100
AcDbLine
 10
111.9291529401175
 20
38.01676650569551
 30
0.0
 11
-4.070847059882464
 21
38.0167665056955
 31
0.0
  0
INSERT
  5
2E3A
330
2E34
100
AcDbEntity
  8
0
100
AcDbBlockReference
  2
layers
 10
0.8387486649539821
 20
-3.611935436597064
 30
0.0
  0
LINE
  5
2E3B
330
2E34
100
AcDbEntity
  8
Reflector
100
AcDbLine
 10
111.9291529401175
 20
33.3817665056955
 30
0.0
 11
-8.070847059882467
 21
33.38176650569551
 31
0.0
  0
LINE
  5
2E3C
330
2E34
100
AcDbEntity
  8
Reflector
100
AcDbLine
 10
111.9291529401175
 20
38.7567665056955
 30
0.0
 11
-8.070847059882467
 21
38.75676650569551
 31
0.0
  0
LINE
  5
2E3D
330
2E34
100
AcDbEntity
  8
Reflector
100
AcDbLine
 10
111.9291529401175
 20
46.63176650569549
 30
0.0
 11
-8.070847059882467
 21
46.63176650569549
 31
0.0
  0
LINE
  5
2E3E
330
2E34
100
AcDbEntity
  8
Reflector
100
AcDbLine
 10
-8.070847059882467
 20
33.38176650569551
 30
0.0
 11
-8.070847059882467
 21
46.63176650569549
 31
0.0
  0
LINE
  5
2E3F
330
2E34
100
AcDbEntity
  8
Reflector
100
AcDbLine
 10
111.9291529401175
 20
41.25676650569547
 30
0.0
 11
-8.070847059882481
 21
41.25676650569551
 31
0.0
  0
LINE
  5
2E40
330
2E34
100
AcDbEntity
  8
Radiant Tubes
100
AcDbLine
 10
-4.155847059882461
 20
38.10176650569551
 30
0.0
 11
-8.070847059882467
 21
38.10176650569551
 31
0.0
  0
LINE
  5
2E41
330
2E34
100
AcDbEntity
  8
Radiant Tubes
100
AcDbLine
 10
-4.155847059882475
 20
41.91176650569551
 30
0.0
 11
-8.070847059882467
 21
41.91176650569551
 31
0.0
  0
LINE
  5
2E42
330
2E34
100
AcDbEntity
  8
Radiant Tubes
100
AcDbLine
 10
111.9291529401175
 20
41.99676650569549
 30
0.0
 11
-4.070847059882464
 21
41.99676650569549
 31
0.0
  0
LINE
  5
2E43
330
2E34
100
AcDbEntity
  8
Radiant Tubes
100
AcDbLine
 10
-4.070847059882464
 20
41.99676650569549
 30
0.0
 11
-4.070847059882464
 21
38.0167665056955
 31
0.0
  0
LINE
  5
2E44
330
2E34
100
AcDbEntity
  8
Radiant Tubes
100
AcDbLine
 10
-4.155847059882475
 20
41.91176650569551
 30
0.0
 11
-4.070847059882464
 21
41.99676650569549
 31
0.0
  0
LINE
  5
2E45
330
2E34
100
AcDbEntity
  8
Radiant Tubes
100
AcDbLine
 10
-4.155847059882475
 20
41.91176650569551
 30
0.0
 11
-4.155847059882461
 21
38.10176650569551
 31
0.0
  0
LINE
  5
2E46
330
2E34
100
AcDbEntity
  8
Radiant Tubes
100
AcDbLine
 10
-4.155847059882461
 20
38.10176650569551
 30
0.0
 11
-4.070847059882464
 21
38.0167665056955
 31
0.0
  0
LINE
  5
2E47
330
2E34
100
AcDbEntity
  8
Radiant Tubes
100
AcDbLine
 10
-8.070847059882467
 20
38.10176650569551
 30
0.0
 11
-8.070847059882467
 21
41.91176650569551
 31
0.0
  0
LINE
  5
2E48
330
2E34
100
AcDbEntity
  8
Reflector
100
AcDbLine
 10
111.9291529401175
 20
33.38176650569558
 30
0.0
 11
111.9291529401175
 21
46.63176650569556
 31
0.0
  0
LINE
  5
2E49
330
2E34
100
AcDbEntity
  8
Radiant Tubes
100
AcDbLine
 10
111.9291529401175
 20
38.01676650569551
 30
0.0
 11
111.9291529401175
 21
41.99676650569549
 31
0.0
  0
ENDBLK
  5
2E4A
330
2E34
100
AcDbEntity
  8
0
100
AcDbBlockEnd
  0
BLOCK
  5
2E4E
330
2E4B
100
AcDbEntity
  8
0
100
AcDbBlockBegin
  2
4 in V3 BURNER BOX
 70
     0
 10
0.0
 20
0.0
 30
0.0
  3
4 in V3 BURNER BOX
  1

  0
INSERT
  5
2E4F
330
2E4B
100
AcDbEntity
  8
0
100
AcDbBlockReference
  2
layers
 10
0.8387486649539821
 20
-3.611935436597064
 30
0.0
  0
LINE
  5
2E50
330
2E4B
100
AcDbEntity
  8
Center Lines
100
AcDbLine
 10
15.01757864838842
 20
42.94549349941227
 30
0.0
 11
44.01570792097589
 21
42.94549349941227
 31
0.0
  0
ARC
  5
2E51
330
2E4B
100
AcDbEntity
  8
V3 Burner Box
100
AcDbCircle
 10
27.50624855527787
 20
46.41594553648256
 30
0.0
 40
0.0933823529411774
100
AcDbArc
 50
286.260204708307
 51
0.0
  0
ARC
  5
2E52
330
2E4B
100
AcDbEntity
  8
V3 Burner Box
100
AcDbCircle
 10
27.50624855527787
 20
47.56766122275708
 30
0.0
 40
0.0933823529411774
100
AcDbArc
 50
0.0
 51
73.73979529169303
  0
ARC
  5
2E53
330
2E4B
100
AcDbEntity
  8
V3 Burner Box
100
AcDbCircle
 10
31.9387975748857
 20
46.41594553648256
 30
0.0
 40
0.093382352941179
100
AcDbArc
 50
180.0
 51
306.6812713094355
  0
ARC
  5
2E54
330
2E4B
100
AcDbEntity
  8
V3 Burner Box
100
AcDbCircle
 10
31.9387975748857
 20
47.56766122275708
 30
0.0
 40
0.093382352941179
100
AcDbArc
 50
53.31872869056703
 51
180.0
  0
ARC
  5
2E55
330
2E4B
100
AcDbEntity
  8
V3 Burner Box
100
AcDbCircle
 10
27.63075835919944
 20
46.43150926197278
 30
0.0
 40
0.031127450980394
100
AcDbArc
 50
90.0
 51
180.0
  0
ARC
  5
2E56
330
2E4B
100
AcDbEntity
  8
V3 Burner Box
100
AcDbCircle
 10
27.63075835919944
 20
47.5520974972669
 30
0.0
 40
0.031127450980394
100
AcDbArc
 50
180.0
 51
270.0
  0
ARC
  5
2E57
330
2E4B
100
AcDbEntity
  8
V3 Burner Box
100
AcDbCircle
 10
31.81428777096413
 20
46.43150926197278
 30
0.0
 40
0.031127450980394
100
AcDbArc
 50
0.0
 51
90.0
  0
ARC
  5
2E58
330
2E4B
100
AcDbEntity
  8
V3 Burner Box
100
AcDbCircle
 10
31.81428777096413
 20
47.5520974972669
 30
0.0
 40
0.031127450980394
100
AcDbArc
 50
270.0
 51
0.0
  0
LINE
  5
2E59
330
2E4B
100
AcDbEntity
  8
V3 Burner Box
100
AcDbLine
 10
30.97384647060564
 20
46.46263659903581
 30
0.0
 11
31.81428773963873
 21
46.46263659903581
 31
0.0
  0
LINE
  5
2E5A
330
2E4B
100
AcDbEntity
  8
V3 Burner Box
100
AcDbLine
 10
31.81428773963873
 20
47.52096995153613
 30
0.0
 11
30.97384647060564
 21
47.52096995153613
 31
0.0
  0
LINE
  5
2E5B
330
2E4B
100
AcDbEntity
  8
V3 Burner Box
100
AcDbLine
 10
27.63075810086216
 20
46.46263659903581
 30
0.0
 11
28.47119936989523
 21
46.46263659903581
 31
0.0
  0
LINE
  5
2E5C
330
2E4B
100
AcDbEntity
  8
V3 Burner Box
100
AcDbLine
 10
28.47119936989523
 20
47.52096995153613
 30
0.0
 11
27.63075810086216
 21
47.52096995153613
 31
0.0
  0
LINE
  5
2E5D
330
2E4B
100
AcDbEntity
  8
V3 Burner Box
100
AcDbLine
 10
28.47119936989523
 20
46.52489160524631
 30
0.0
 11
30.97384647060564
 21
46.52489160524631
 31
0.0
  0
LINE
  5
2E5E
330
2E4B
100
AcDbEntity
  8
V3 Burner Box
100
AcDbLine
 10
30.97384647060564
 20
47.45871523750529
 30
0.0
 11
28.47119936989523
 21
47.45871523750529
 31
0.0
  0
LINE
  5
2E5F
330
2E4B
100
AcDbEntity
  8
V3 Burner Box
100
AcDbLine
 10
16.73565254725383
 20
42.10479361488306
 30
0.0
 11
16.77176010608394
 21
42.10479361488306
 31
0.0
  0
LINE
  5
2E60
330
2E4B
100
AcDbEntity
  8
V3 Burner Box
100
AcDbLine
 10
16.77176010608394
 20
43.78567592468389
 30
0.0
 11
16.73565254725383
 21
43.78567592468389
 31
0.0
  0
LINE
  5
2E61
330
2E4B
100
AcDbEntity
  8
V3 Burner Box
100
AcDbLine
 10
16.58001546999708
 20
42.16829359850229
 30
0.0
 11
16.67339783322299
 21
42.16829359850229
 31
0.0
  0
LINE
  5
2E62
330
2E4B
100
AcDbEntity
  8
V3 Burner Box
100
AcDbLine
 10
16.67339783322299
 20
43.72217593193403
 30
0.0
 11
16.58001546999708
 21
43.72217593193403
 31
0.0
  0
LINE
  5
2E63
330
2E4B
100
AcDbEntity
  8
V3 Burner Box
100
AcDbLine
 10
16.67339783322299
 20
42.2604308382296
 30
0.0
 11
16.73565254725383
 21
42.2604308382296
 31
0.0
  0
LINE
  5
2E64
330
2E4B
100
AcDbEntity
  8
V3 Burner Box
100
AcDbLine
 10
16.73565254725383
 20
43.63003867394552
 30
0.0
 11
16.67339783322299
 21
43.63003867394552
 31
0.0
  0
ARC
  5
2E65
330
2E4B
100
AcDbEntity
  8
V3 Burner Box
100
AcDbCircle
 10
16.54888777096414
 20
42.3333177382113
 30
0.0
 40
0.0311274509803895
100
AcDbArc
 50
0.0
 51
69.86369657175242
  0
ARC
  5
2E66
330
2E4B
100
AcDbEntity
  8
V3 Burner Box
100
AcDbCircle
 10
16.54888777096414
 20
43.5571517661264
 30
0.0
 40
0.0311274509803943
100
AcDbArc
 50
290.1363034282372
 51
0.0
  0
LINE
  5
2E67
330
2E4B
100
AcDbEntity
  8
V3 Burner Box
100
AcDbLine
 10
16.55960380095783
 20
43.5279269329216
 30
0.0
 11
16.21167454298526
 21
43.40035305184243
 31
0.0
  0
LINE
  5
2E68
330
2E4B
100
AcDbEntity
  8
V3 Burner Box
100
AcDbLine
 10
16.21167454298526
 20
42.49011646033268
 30
0.0
 11
16.55960380095783
 21
42.36254250620861
 31
0.0
  0
ARC
  5
2E69
330
2E4B
100
AcDbEntity
  8
V3 Burner Box
100
AcDbCircle
 10
16.20095901632058
 20
42.46089161491393
 30
0.0
 40
0.0311274509803959
100
AcDbArc
 50
69.86369657175242
 51
90.0
  0
ARC
  5
2E6A
330
2E4B
100
AcDbEntity
  8
V3 Burner Box
100
AcDbCircle
 10
16.20095901632058
 20
43.42957788942375
 30
0.0
 40
0.0311274509803959
100
AcDbArc
 50
270.0
 51
290.1363034282476
  0
LINE
  5
2E6B
330
2E4B
100
AcDbEntity
  8
V3 Burner Box
100
AcDbLine
 10
15.83295656418988
 20
42.49201913409139
 30
0.0
 11
16.20095914718872
 21
42.49201913409139
 31
0.0
  0
LINE
  5
2E6C
330
2E4B
100
AcDbEntity
  8
V3 Burner Box
100
AcDbLine
 10
16.20095914718872
 20
43.39845045112862
 30
0.0
 11
15.83295656418988
 21
43.39845045112862
 31
0.0
  0
LINE
  5
2E6D
330
2E4B
100
AcDbEntity
  8
V3 Burner Box
100
AcDbLine
 10
15.83295656418988
 20
43.36856807152197
 30
0.0
 11
15.33491709886533
 21
43.36856807152197
 31
0.0
  0
LINE
  5
2E6E
330
2E4B
100
AcDbEntity
  8
V3 Burner Box
100
AcDbLine
 10
15.33491709886533
 20
42.52190136760821
 30
0.0
 11
15.83295656418988
 21
42.52190136760821
 31
0.0
  0
LINE
  5
2E6F
330
2E4B
100
AcDbEntity
  8
V3 Burner Box
100
AcDbLine
 10
14.55673112822235
 20
43.36545533582041
 30
0.0
 11
13.80967222241516
 21
43.36545533582041
 31
0.0
  0
LINE
  5
2E70
330
2E4B
100
AcDbEntity
  8
V3 Burner Box
100
AcDbLine
 10
13.80967222241516
 20
42.5250141033098
 30
0.0
 11
14.55673112822235
 21
42.5250141033098
 31
0.0
  0
LINE
  5
2E71
330
2E4B
100
AcDbEntity
  8
V3 Burner Box
100
AcDbLine
 10
13.80967222241516
 20
43.36545533582041
 30
0.0
 11
13.6851622099942
 21
43.24094550601175
 31
0.0
  0
LINE
  5
2E72
330
2E4B
100
AcDbEntity
  8
V3 Burner Box
100
AcDbLine
 10
13.6851622099942
 20
42.64952396964095
 30
0.0
 11
13.80967222241516
 21
42.5250141033098
 31
0.0
  0
LINE
  5
2E73
330
2E4B
100
AcDbEntity
  8
V3 Burner Box
100
AcDbLine
 10
15.95746599225158
 20
49.26405431911992
 30
0.0
 11
16.08197600467252
 21
49.26405431911992
 31
0.0
  0
LINE
  5
2E74
330
2E4B
100
AcDbEntity
  8
V3 Burner Box
100
AcDbLine
 10
16.08197600467252
 20
50.07336793895799
 30
0.0
 11
15.95746599225158
 21
50.07336793895799
 31
0.0
  0
ARC
  5
2E75
330
2E4B
100
AcDbEntity
  8
V3 Burner Box
100
AcDbCircle
 10
15.95746620233669
 20
49.3885639243173
 30
0.0
 40
0.1245098039215713
100
AcDbArc
 50
180.0
 51
270.0
  0
ARC
  5
2E76
330
2E4B
100
AcDbEntity
  8
V3 Burner Box
100
AcDbCircle
 10
15.95746620233669
 20
49.94885804196435
 30
0.0
 40
0.1245098039215713
100
AcDbArc
 50
90.0
 51
180.0
  0
LINE
  5
2E77
330
2E4B
100
AcDbEntity
  8
V3 Burner Box
100
AcDbLine
 10
16.51776017160698
 20
49.32630903315075
 30
0.0
 11
16.70452489805878
 21
49.32630903315075
 31
0.0
  0
LINE
  5
2E78
330
2E4B
100
AcDbEntity
  8
V3 Burner Box
100
AcDbLine
 10
16.70452489805878
 20
50.01111322492711
 30
0.0
 11
16.51776017160698
 21
50.01111322492711
 31
0.0
  0
LINE
  5
2E79
330
2E4B
100
AcDbEntity
  8
V3 Burner Box
100
AcDbLine
 10
16.77176010608394
 20
50.13562440606661
 30
0.0
 11
16.76678019644888
 21
50.13562440606661
 31
0.0
  0
LINE
  5
2E7A
330
2E4B
100
AcDbEntity
  8
V3 Burner Box
100
AcDbLine
 10
16.76678019644888
 20
49.20180077380762
 30
0.0
 11
16.77176010608394
 21
49.20180077380762
 31
0.0
  0
ARC
  5
2E7B
330
2E4B
100
AcDbEntity
  8
V3 Burner Box
100
AcDbCircle
 10
14.94893679057198
 20
39.83373475216886
 30
0.0
 40
0.0498039215686267
100
AcDbArc
 50
90.0
 51
180.0
  0
ARC
  5
2E7C
330
2E4B
100
AcDbEntity
  8
V3 Burner Box
100
AcDbCircle
 10
14.94893679057198
 20
36.0112837717767
 30
0.0
 40
0.0498039215686267
100
AcDbArc
 50
180.0
 51
270.0
  0
LINE
  5
2E7D
330
2E4B
100
AcDbEntity
  8
V3 Burner Box
100
AcDbLine
 10
14.94893670315557
 20
35.96147976404079
 30
0.0
 11
16.39325074354528
 21
35.96147976404079
 31
0.0
  0
LINE
  5
2E7E
330
2E4B
100
AcDbEntity
  8
V3 Burner Box
100
AcDbLine
 10
16.39325074354528
 20
39.88353872734895
 30
0.0
 11
14.94893670315557
 21
39.88353872734895
 31
0.0
  0
LINE
  5
2E7F
330
2E4B
100
AcDbEntity
  8
V3 Burner Box
100
AcDbLine
 10
16.50289933120224
 20
40.00929371717865
 30
0.0
 11
16.39325074354528
 21
40.00929371717865
 31
0.0
  0
LINE
  5
2E80
330
2E4B
100
AcDbEntity
  8
V3 Burner Box
100
AcDbLine
 10
16.39325074354528
 20
35.83572506639071
 30
0.0
 11
16.50133207966019
 21
35.83572506639071
 31
0.0
  0
ARC
  5
2E81
330
2E4B
100
AcDbEntity
  8
V3 Burner Box
100
AcDbCircle
 10
27.72663090821899
 20
45.17671019913104
 30
0.0
 40
0.2490196078431248
100
AcDbArc
 50
218.7394245978638
 51
270.0
  0
ARC
  5
2E82
330
2E4B
100
AcDbEntity
  8
V3 Burner Box
100
AcDbCircle
 10
27.72663090821899
 20
40.7142788126494
 30
0.0
 40
0.2490196078431257
100
AcDbArc
 50
90.0
 51
136.0751947761094
  0
LINE
  5
2E83
330
2E4B
100
AcDbEntity
  8
BURNER Radiant Tubes
  6
Continuous
100
AcDbLine
 10
32.03218011528559
 20
44.9276905553341
 30
0.0
 11
27.72663100326483
 21
44.9276905553341
 31
0.0
  0
LINE
  5
2E84
330
2E4B
100
AcDbEntity
  8
BURNER Radiant Tubes
  6
Continuous
100
AcDbLine
 10
39.55506231504049
 20
44.9276905553341
 30
0.0
 11
36.51453238141023
 21
44.9276905553341
 31
0.0
  0
LINE
  5
2E85
330
2E4B
100
AcDbEntity
  8
BURNER Radiant Tubes
  6
Continuous
100
AcDbLine
 10
27.72663100326483
 20
40.96329848874783
 30
0.0
 11
39.55506231504049
 21
40.96329848874783
 31
0.0
  0
LINE
  5
2E86
330
2E4B
100
AcDbEntity
  8
BURNER Radiant Tubes
  6
Continuous
100
AcDbLine
 10
39.55506231504049
 20
40.96329848874783
 30
0.0
 11
39.63972895986615
 21
41.04796513357348
 31
0.0
  0
LINE
  5
2E87
330
2E4B
100
AcDbEntity
  8
BURNER Radiant Tubes
  6
Continuous
100
AcDbLine
 10
39.63972895986615
 20
44.84302391050845
 30
0.0
 11
39.55506231504049
 21
44.9276905553341
 31
0.0
  0
LINE
  5
2E88
330
2E4B
100
AcDbEntity
  8
BURNER Radiant Tubes
  6
Continuous
100
AcDbLine
 10
43.53937686891838
 20
44.84302391050845
 30
0.0
 11
39.63972895986615
 21
44.84302391050845
 31
0.0
  0
LINE
  5
2E89
330
2E4B
100
AcDbEntity
  8
BURNER Radiant Tubes
  6
Continuous
100
AcDbLine
 10
39.63972895986615
 20
41.04796513357348
 30
0.0
 11
43.53937686891838
 21
41.04796513357348
 31
0.0
  0
LINE
  5
2E8A
330
2E4B
100
AcDbEntity
  8
V3 Burner Box
100
AcDbLine
 10
27.53239582800119
 20
34.82537958870685
 30
0.0
 11
27.53239582800119
 21
37.21054710328348
 31
0.0
  0
LINE
  5
2E8B
330
2E4B
100
AcDbEntity
  8
V3 Burner Box
100
AcDbLine
 10
16.77176010608394
 20
37.21054710328348
 30
0.0
 11
16.77176010608394
 21
34.82537958870685
 31
0.0
  0
LINE
  5
2E8C
330
2E4B
100
AcDbEntity
  8
V3 Burner Box
100
AcDbLine
 10
16.77176010608394
 20
52.95265854308185
 30
0.0
 11
16.77176010608394
 21
50.5674910285052
 31
0.0
  0
LINE
  5
2E8D
330
2E4B
100
AcDbEntity
  8
V3 Burner Box
100
AcDbLine
 10
27.53239582800119
 20
50.5674910285052
 30
0.0
 11
27.53239582800119
 21
52.95265854308185
 31
0.0
  0
LINE
  5
2E8E
330
2E4B
100
AcDbEntity
  8
V3 Burner Box
100
AcDbLine
 10
16.77176010608394
 20
40.08291743284114
 30
0.0
 11
16.76802488167801
 21
40.08291743284114
 31
0.0
  0
LINE
  5
2E8F
330
2E4B
100
AcDbEntity
  8
V3 Burner Box
100
AcDbLine
 10
27.66437628923398
 20
45.17570117259494
 30
0.0
 11
27.59963103602635
 21
45.17570117259494
 31
0.0
  0
LINE
  5
2E90
330
2E4B
100
AcDbEntity
  8
V3 Burner Box
100
AcDbLine
 10
27.66437628923398
 20
45.17570117259494
 30
0.0
 11
27.66437628923398
 21
45.01750270260082
 31
0.0
  0
LINE
  5
2E91
330
2E4B
100
AcDbEntity
  8
V3 Burner Box
100
AcDbLine
 10
27.66437628923398
 20
45.01750270260082
 30
0.0
 11
27.53515283500168
 21
45.01750270260082
 31
0.0
  0
LINE
  5
2E92
330
2E4B
100
AcDbEntity
  8
V3 Burner Box
100
AcDbLine
 10
27.66437628923398
 20
45.36403651065453
 30
0.0
 11
27.59963103602635
 21
45.36403651065453
 31
0.0
  0
LINE
  5
2E93
330
2E4B
100
AcDbEntity
  8
V3 Burner Box
100
AcDbLine
 10
27.66437628923398
 20
45.36403651065453
 30
0.0
 11
27.66437628923398
 21
45.17570117259494
 31
0.0
  0
LINE
  5
2E94
330
2E4B
100
AcDbEntity
  8
V3 Burner Box
100
AcDbLine
 10
27.66437628923398
 20
45.39417337872002
 30
0.0
 11
27.59963103602635
 21
45.39417337872002
 31
0.0
  0
LINE
  5
2E95
330
2E4B
100
AcDbEntity
  8
V3 Burner Box
100
AcDbLine
 10
27.66437628923398
 20
45.39417337872002
 30
0.0
 11
27.66437628923398
 21
45.36403651065453
 31
0.0
  0
LINE
  5
2E96
330
2E4B
100
AcDbEntity
  8
V3 Burner Box
100
AcDbLine
 10
27.66437628923398
 20
40.47909577422045
 30
0.0
 11
27.53239582800119
 21
40.47909577422045
 31
0.0
  0
LINE
  5
2E97
330
2E4B
100
AcDbEntity
  8
V3 Burner Box
100
AcDbLine
 10
27.66437628923398
 20
40.48327481948628
 30
0.0
 11
27.66437628923398
 21
40.47909577422045
 31
0.0
  0
LINE
  5
2E98
330
2E4B
100
AcDbEntity
  8
V3 Burner Box
100
AcDbLine
 10
27.59963103602635
 20
45.36601383630902
 30
0.0
 11
27.53239582800119
 21
45.36601383630902
 31
0.0
  0
LINE
  5
2E99
330
2E4B
100
AcDbEntity
  8
V3 Burner Box
100
AcDbLine
 10
27.59963103602635
 20
45.36601383630902
 30
0.0
 11
27.59963103602635
 21
45.1766396535705
 31
0.0
  0
LINE
  5
2E9A
330
2E4B
100
AcDbEntity
  8
V3 Burner Box
100
AcDbLine
 10
27.59963103602635
 20
45.1766396535705
 30
0.0
 11
27.53239582800119
 21
45.1766396535705
 31
0.0
  0
LINE
  5
2E9B
330
2E4B
100
AcDbEntity
  8
V3 Burner Box
100
AcDbLine
 10
27.59963103602635
 20
45.02026241226291
 30
0.0
 11
27.53239582800119
 21
45.02026241226291
 31
0.0
  0
LINE
  5
2E9C
330
2E4B
100
AcDbEntity
  8
V3 Burner Box
100
AcDbLine
 10
27.59963103602635
 20
45.1766396535705
 30
0.0
 11
27.59963103602635
 21
45.02026241226291
 31
0.0
  0
LINE
  5
2E9D
330
2E4B
100
AcDbEntity
  8
V3 Burner Box
100
AcDbLine
 10
27.59963103602635
 20
45.39901055860521
 30
0.0
 11
27.53239582800119
 21
45.39901055860521
 31
0.0
  0
LINE
  5
2E9E
330
2E4B
100
AcDbEntity
  8
V3 Burner Box
100
AcDbLine
 10
27.59963103602635
 20
45.39901055860521
 30
0.0
 11
27.59963103602635
 21
45.36601383630902
 31
0.0
  0
LINE
  5
2E9F
330
2E4B
100
AcDbEntity
  8
V3 Burner Box
100
AcDbLine
 10
27.66437628923398
 20
40.77437981405443
 30
0.0
 11
27.53239582800119
 21
40.77437981405443
 31
0.0
  0
LINE
  5
2EA0
330
2E4B
100
AcDbEntity
  8
V3 Burner Box
100
AcDbLine
 10
27.66437628923398
 20
40.77437981405443
 30
0.0
 11
27.66437628923398
 21
40.57250355707431
 31
0.0
  0
LINE
  5
2EA1
330
2E4B
100
AcDbEntity
  8
V3 Burner Box
100
AcDbLine
 10
27.66437628923398
 20
40.57250355707431
 30
0.0
 11
27.53239582800119
 21
40.57250355707431
 31
0.0
  0
LINE
  5
2EA2
330
2E4B
100
AcDbEntity
  8
V3 Burner Box
100
AcDbLine
 10
27.66437628923398
 20
40.88702704126696
 30
0.0
 11
27.53239582800119
 21
40.88702704126696
 31
0.0
  0
LINE
  5
2EA3
330
2E4B
100
AcDbEntity
  8
V3 Burner Box
100
AcDbLine
 10
27.66437628923398
 20
40.88702704126696
 30
0.0
 11
27.66437628923398
 21
40.77437981405443
 31
0.0
  0
LINE
  5
2EA4
330
2E4B
100
AcDbEntity
  8
V3 Burner Box
100
AcDbLine
 10
27.66437628923398
 20
40.48327481948628
 30
0.0
 11
27.53239582800119
 21
40.48327481948628
 31
0.0
  0
LINE
  5
2EA5
330
2E4B
100
AcDbEntity
  8
V3 Burner Box
100
AcDbLine
 10
27.66437628923398
 20
40.57250355707431
 30
0.0
 11
27.66437628923398
 21
40.48327481948628
 31
0.0
  0
LINE
  5
2EA6
330
2E4B
100
AcDbEntity
  8
V3 Burner Box
100
AcDbLine
 10
27.66437628923398
 20
43.03852177744754
 30
0.0
 11
27.53239582800119
 21
43.03852177744754
 31
0.0
  0
LINE
  5
2EA7
330
2E4B
100
AcDbEntity
  8
V3 Burner Box
100
AcDbLine
 10
27.66437628923398
 20
43.03852177744754
 30
0.0
 11
27.66437628923398
 21
42.83664559351229
 31
0.0
  0
LINE
  5
2EA8
330
2E4B
100
AcDbEntity
  8
V3 Burner Box
100
AcDbLine
 10
27.66437628923398
 20
42.83664559351229
 30
0.0
 11
27.53239582800119
 21
42.83664559351229
 31
0.0
  0
LINE
  5
2EA9
330
2E4B
100
AcDbEntity
  8
V3 Burner Box
100
AcDbLine
 10
27.66437628923398
 20
43.15116907770494
 30
0.0
 11
27.53239582800119
 21
43.15116907770494
 31
0.0
  0
LINE
  5
2EAA
330
2E4B
100
AcDbEntity
  8
V3 Burner Box
100
AcDbLine
 10
27.66437628923398
 20
43.15116907770494
 30
0.0
 11
27.66437628923398
 21
43.03852177744754
 31
0.0
  0
LINE
  5
2EAB
330
2E4B
100
AcDbEntity
  8
V3 Burner Box
100
AcDbLine
 10
27.66437628923398
 20
42.74741678287937
 30
0.0
 11
27.53239582800119
 21
42.74741678287937
 31
0.0
  0
LINE
  5
2EAC
330
2E4B
100
AcDbEntity
  8
V3 Burner Box
100
AcDbLine
 10
27.66437628923398
 20
42.83664559351229
 30
0.0
 11
27.66437628923398
 21
42.74741678287937
 31
0.0
  0
LINE
  5
2EAD
330
2E4B
100
AcDbEntity
  8
V3 Burner Box
100
AcDbLine
 10
31.99458127161757
 20
46.72237844762615
 30
0.0
 11
36.57031648532738
 21
46.72237844762615
 31
0.0
  0
LINE
  5
2EAE
330
2E4B
100
AcDbEntity
  8
V3 Burner Box
100
AcDbLine
 10
31.99458127161757
 20
46.72237844762615
 30
0.0
 11
31.99458127161757
 21
48.21648194243862
 31
0.0
  0
LINE
  5
2EAF
330
2E4B
100
AcDbEntity
  8
V3 Burner Box
100
AcDbLine
 10
31.99458127161757
 20
48.21648194243862
 30
0.0
 11
36.57031648532738
 21
48.21648194243862
 31
0.0
  0
LINE
  5
2EB0
330
2E4B
100
AcDbEntity
  8
V3 Burner Box
100
AcDbLine
 10
36.57031648532738
 20
46.72237844762615
 30
0.0
 11
36.57031648532738
 21
48.21648194243862
 31
0.0
  0
LINE
  5
2EB1
330
2E4B
100
AcDbEntity
  8
V3 Burner Box
100
AcDbLine
 10
31.99458127161757
 20
46.22433927448123
 30
0.0
 11
31.99458127161757
 21
46.72237844762615
 31
0.0
  0
LINE
  5
2EB2
330
2E4B
100
AcDbEntity
  8
V3 Burner Box
100
AcDbLine
 10
36.57031648532738
 20
46.22433927448123
 30
0.0
 11
36.57031648532738
 21
46.72237844762615
 31
0.0
  0
LINE
  5
2EB3
330
2E4B
100
AcDbEntity
  8
V3 Burner Box
100
AcDbLine
 10
31.99458127161757
 20
46.22433927448123
 30
0.0
 11
36.57031648532738
 21
46.22433927448123
 31
0.0
  0
LINE
  5
2EB4
330
2E4B
100
AcDbEntity
  8
V3 Burner Box
100
AcDbLine
 10
36.5284810370062
 20
44.9276905553341
 30
0.0
 11
36.5284810370062
 21
46.22433927448123
 31
0.0
  0
LINE
  5
2EB5
330
2E4B
100
AcDbEntity
  8
V3 Burner Box
100
AcDbLine
 10
36.57031648532738
 20
44.9276905553341
 30
0.0
 11
36.57031648532738
 21
46.22433927448123
 31
0.0
  0
LINE
  5
2EB6
330
2E4B
100
AcDbEntity
  8
V3 Burner Box
100
AcDbLine
 10
31.99458127161757
 20
44.9276905553341
 30
0.0
 11
31.99458127161757
 21
46.22433927448123
 31
0.0
  0
LINE
  5
2EB7
330
2E4B
100
AcDbEntity
  8
V3 Burner Box
100
AcDbLine
 10
32.03218011528559
 20
42.94523473782634
 30
0.0
 11
36.51453238141023
 21
42.94523473782634
 31
0.0
  0
LINE
  5
2EB8
330
2E4B
100
AcDbEntity
  8
V3 Burner Box
100
AcDbLine
 10
32.03218011528559
 20
42.94523473782634
 30
0.0
 11
32.03218011528559
 21
46.18248965544795
 31
0.0
  0
LINE
  5
2EB9
330
2E4B
100
AcDbEntity
  8
V3 Burner Box
100
AcDbLine
 10
32.03218011528559
 20
46.18248965544795
 30
0.0
 11
36.51453238141023
 21
46.18248965544795
 31
0.0
  0
LINE
  5
2EBA
330
2E4B
100
AcDbEntity
  8
V3 Burner Box
100
AcDbLine
 10
36.51453238141023
 20
42.94523473782634
 30
0.0
 11
36.51453238141023
 21
46.18248965544795
 31
0.0
  0
LINE
  5
2EBB
330
2E4B
100
AcDbEntity
  8
V3 Burner Box
100
AcDbLine
 10
36.47269810180759
 20
46.18248965544795
 30
0.0
 11
36.47269810180759
 21
46.22433927448123
 31
0.0
  0
LINE
  5
2EBC
330
2E4B
100
AcDbEntity
  8
V3 Burner Box
100
AcDbLine
 10
32.07401556360677
 20
46.22433927448123
 30
0.0
 11
32.07401556360677
 21
46.18248965544795
 31
0.0
  0
LINE
  5
2EBD
330
2E4B
100
AcDbEntity
  8
V3 Burner Box
100
AcDbLine
 10
36.51453238141023
 20
46.18248965544795
 30
0.0
 11
36.51453238141023
 21
46.22433927448123
 31
0.0
  0
LINE
  5
2EBE
330
2E4B
100
AcDbEntity
  8
V3 Burner Box
100
AcDbLine
 10
32.03218011528559
 20
46.18248965544795
 30
0.0
 11
32.03218011528559
 21
46.22433927448123
 31
0.0
  0
LINE
  5
2EBF
330
2E4B
100
AcDbEntity
  8
V3 Burner Box
100
AcDbLine
 10
27.59963103602635
 20
46.99180342137582
 30
0.0
 11
27.59963103602635
 21
47.56766113314909
 31
0.0
  0
LINE
  5
2EC0
330
2E4B
100
AcDbEntity
  8
V3 Burner Box
100
AcDbLine
 10
27.59963103602635
 20
46.41594541742288
 30
0.0
 11
27.59963103602635
 21
46.99180342137582
 31
0.0
  0
LINE
  5
2EC1
330
2E4B
100
AcDbEntity
  8
V3 Burner Box
100
AcDbLine
 10
31.84541538883379
 20
46.99180342137582
 30
0.0
 11
31.84541538883379
 21
47.56766113314909
 31
0.0
  0
LINE
  5
2EC2
330
2E4B
100
AcDbEntity
  8
V3 Burner Box
100
AcDbLine
 10
31.84541538883379
 20
46.41594541742288
 30
0.0
 11
31.84541538883379
 21
46.99180342137582
 31
0.0
  0
LINE
  5
2EC3
330
2E4B
100
AcDbEntity
  8
V3 Burner Box
100
AcDbLine
 10
30.97384647060564
 20
46.99180342137582
 30
0.0
 11
30.97384647060564
 21
47.52096995153613
 31
0.0
  0
LINE
  5
2EC4
330
2E4B
100
AcDbEntity
  8
V3 Burner Box
100
AcDbLine
 10
30.97384647060564
 20
46.46263659903581
 30
0.0
 11
30.97384647060564
 21
46.99180342137582
 31
0.0
  0
LINE
  5
2EC5
330
2E4B
100
AcDbEntity
  8
V3 Burner Box
100
AcDbLine
 10
28.47119936989523
 20
46.99180342137582
 30
0.0
 11
28.47119936989523
 21
47.52096995153613
 31
0.0
  0
LINE
  5
2EC6
330
2E4B
100
AcDbEntity
  8
V3 Burner Box
100
AcDbLine
 10
28.47119936989523
 20
46.46263659903581
 30
0.0
 11
28.47119936989523
 21
46.99180342137582
 31
0.0
  0
LINE
  5
2EC7
330
2E4B
100
AcDbEntity
  8
V3 Burner Box
100
AcDbLine
 10
16.73565254725383
 20
42.10479361488306
 30
0.0
 11
16.73565254725383
 21
43.78567592468389
 31
0.0
  0
LINE
  5
2EC8
330
2E4B
100
AcDbEntity
  8
V3 Burner Box
100
AcDbLine
 10
16.58001546999708
 20
42.16829359850229
 30
0.0
 11
16.58001546999708
 21
43.72217593193403
 31
0.0
  0
LINE
  5
2EC9
330
2E4B
100
AcDbEntity
  8
V3 Burner Box
100
AcDbLine
 10
16.67339783322299
 20
42.16829359850229
 30
0.0
 11
16.67339783322299
 21
43.72217593193403
 31
0.0
  0
LINE
  5
2ECA
330
2E4B
100
AcDbEntity
  8
V3 Burner Box
100
AcDbLine
 10
14.55673112822235
 20
42.92967105931864
 30
0.0
 11
15.33491709886533
 21
42.92967105931864
 31
0.0
  0
LINE
  5
2ECB
330
2E4B
100
AcDbEntity
  8
V3 Burner Box
100
AcDbLine
 10
14.55673112822235
 20
42.92967105931864
 30
0.0
 11
14.55673112822235
 21
42.96079848937893
 31
0.0
  0
LINE
  5
2ECC
330
2E4B
100
AcDbEntity
  8
V3 Burner Box
100
AcDbLine
 10
14.55673112822235
 20
42.96079848937893
 30
0.0
 11
15.33491709886533
 21
42.96079848937893
 31
0.0
  0
LINE
  5
2ECD
330
2E4B
100
AcDbEntity
  8
V3 Burner Box
100
AcDbLine
 10
15.33491709886533
 20
42.92967105931864
 30
0.0
 11
15.33491709886533
 21
42.96079848937893
 31
0.0
  0
LINE
  5
2ECE
330
2E4B
100
AcDbEntity
  8
V3 Burner Box
100
AcDbLine
 10
14.55673112822235
 20
43.38794279504988
 30
0.0
 11
15.33491709886533
 21
43.38794279504988
 31
0.0
  0
LINE
  5
2ECF
330
2E4B
100
AcDbEntity
  8
V3 Burner Box
100
AcDbLine
 10
14.55673112822235
 20
42.96079848937893
 30
0.0
 11
14.55673112822235
 21
43.38794279504988
 31
0.0
  0
LINE
  5
2ED0
330
2E4B
100
AcDbEntity
  8
V3 Burner Box
100
AcDbLine
 10
15.33491709886533
 20
42.96079848937893
 30
0.0
 11
15.33491709886533
 21
43.38794279504988
 31
0.0
  0
LINE
  5
2ED1
330
2E4B
100
AcDbEntity
  8
V3 Burner Box
100
AcDbLine
 10
14.55673112822235
 20
42.50252664408029
 30
0.0
 11
15.33491709886533
 21
42.50252664408029
 31
0.0
  0
LINE
  5
2ED2
330
2E4B
100
AcDbEntity
  8
V3 Burner Box
100
AcDbLine
 10
14.55673112822235
 20
42.50252664408029
 30
0.0
 11
14.55673112822235
 21
42.92967105931864
 31
0.0
  0
LINE
  5
2ED3
330
2E4B
100
AcDbEntity
  8
V3 Burner Box
100
AcDbLine
 10
15.33491709886533
 20
42.50252664408029
 30
0.0
 11
15.33491709886533
 21
42.92967105931864
 31
0.0
  0
LINE
  5
2ED4
330
2E4B
100
AcDbEntity
  8
V3 Burner Box
100
AcDbLine
 10
15.83295656418988
 20
42.49201913409139
 30
0.0
 11
15.83295656418988
 21
43.39845045112862
 31
0.0
  0
LINE
  5
2ED5
330
2E4B
100
AcDbEntity
  8
V3 Burner Box
100
AcDbLine
 10
13.80967222241516
 20
43.36545533582041
 30
0.0
 11
13.80967222241516
 21
42.5250141033098
 31
0.0
  0
LINE
  5
2ED6
330
2E4B
100
AcDbEntity
  8
V3 Burner Box
100
AcDbLine
 10
13.6851622099942
 20
42.64952396964095
 30
0.0
 11
13.6851622099942
 21
43.24094550601175
 31
0.0
  0
LINE
  5
2ED7
330
2E4B
100
AcDbEntity
  8
V3 Burner Box
100
AcDbLine
 10
14.55673112822235
 20
42.4869629655726
 30
0.0
 11
15.33491709886533
 21
42.4869629655726
 31
0.0
  0
LINE
  5
2ED8
330
2E4B
100
AcDbEntity
  8
V3 Burner Box
100
AcDbLine
 10
14.55673112822235
 20
42.4869629655726
 30
0.0
 11
14.55673112822235
 21
42.50252664408029
 31
0.0
  0
LINE
  5
2ED9
330
2E4B
100
AcDbEntity
  8
V3 Burner Box
100
AcDbLine
 10
15.33491709886533
 20
42.4869629655726
 30
0.0
 11
15.33491709886533
 21
42.50252664408029
 31
0.0
  0
LINE
  5
2EDA
330
2E4B
100
AcDbEntity
  8
V3 Burner Box
100
AcDbLine
 10
14.55673112822235
 20
43.40350651008008
 30
0.0
 11
15.33491709886533
 21
43.40350651008008
 31
0.0
  0
LINE
  5
2EDB
330
2E4B
100
AcDbEntity
  8
V3 Burner Box
100
AcDbLine
 10
14.55673112822235
 20
43.38794279504988
 30
0.0
 11
14.55673112822235
 21
43.40350651008008
 31
0.0
  0
LINE
  5
2EDC
330
2E4B
100
AcDbEntity
  8
V3 Burner Box
100
AcDbLine
 10
15.33491709886533
 20
43.38794279504988
 30
0.0
 11
15.33491709886533
 21
43.40350651008008
 31
0.0
  0
LINE
  5
2EDD
330
2E4B
100
AcDbEntity
  8
V3 Burner Box
100
AcDbLine
 10
16.76179970245456
 20
49.64175375972074
 30
0.0
 11
16.70452489805878
 21
49.64175375972074
 31
0.0
  0
LINE
  5
2EDE
330
2E4B
100
AcDbEntity
  8
V3 Burner Box
100
AcDbLine
 10
16.77176010608394
 20
49.28457117282643
 30
0.0
 11
16.70452489805878
 21
49.28457117282643
 31
0.0
  0
LINE
  5
2EDF
330
2E4B
100
AcDbEntity
  8
V3 Burner Box
100
AcDbLine
 10
16.70452489805878
 20
49.64175375972074
 30
0.0
 11
16.70452489805878
 21
49.28457117282643
 31
0.0
  0
LINE
  5
2EE0
330
2E4B
100
AcDbEntity
  8
V3 Burner Box
100
AcDbLine
 10
16.51776017160698
 20
49.64175375972074
 30
0.0
 11
16.08197600467252
 21
49.64175375972074
 31
0.0
  0
LINE
  5
2EE1
330
2E4B
100
AcDbEntity
  8
V3 Burner Box
100
AcDbLine
 10
16.51776017160698
 20
49.64175375972074
 30
0.0
 11
16.51776017160698
 21
49.28457117282643
 31
0.0
  0
LINE
  5
2EE2
330
2E4B
100
AcDbEntity
  8
V3 Burner Box
100
AcDbLine
 10
16.51776017160698
 20
49.28457117282643
 30
0.0
 11
16.08197600467252
 21
49.28457117282643
 31
0.0
  0
LINE
  5
2EE3
330
2E4B
100
AcDbEntity
  8
V3 Burner Box
100
AcDbLine
 10
16.08197600467252
 20
49.64175375972074
 30
0.0
 11
16.08197600467252
 21
49.28457117282643
 31
0.0
  0
LINE
  5
2EE4
330
2E4B
100
AcDbEntity
  8
V3 Burner Box
100
AcDbLine
 10
16.51776017160698
 20
49.69566791399788
 30
0.0
 11
16.08197600467252
 21
49.69566791399788
 31
0.0
  0
LINE
  5
2EE5
330
2E4B
100
AcDbEntity
  8
V3 Burner Box
100
AcDbLine
 10
16.08197600467252
 20
49.69566791399788
 30
0.0
 11
16.08197600467252
 21
49.64175375972074
 31
0.0
  0
LINE
  5
2EE6
330
2E4B
100
AcDbEntity
  8
V3 Burner Box
100
AcDbLine
 10
16.51776017160698
 20
49.69566791399788
 30
0.0
 11
16.51776017160698
 21
49.64175375972074
 31
0.0
  0
LINE
  5
2EE7
330
2E4B
100
AcDbEntity
  8
V3 Burner Box
100
AcDbLine
 10
16.76179970245456
 20
49.69566791399788
 30
0.0
 11
16.70452489805878
 21
49.69566791399788
 31
0.0
  0
LINE
  5
2EE8
330
2E4B
100
AcDbEntity
  8
V3 Burner Box
100
AcDbLine
 10
16.70452489805878
 20
49.69566791399788
 30
0.0
 11
16.70452489805878
 21
49.64175375972074
 31
0.0
  0
LINE
  5
2EE9
330
2E4B
100
AcDbEntity
  8
V3 Burner Box
100
AcDbLine
 10
16.51776017160698
 20
50.0528505008922
 30
0.0
 11
16.08197600467252
 21
50.0528505008922
 31
0.0
  0
LINE
  5
2EEA
330
2E4B
100
AcDbEntity
  8
V3 Burner Box
100
AcDbLine
 10
16.08197600467252
 20
50.0528505008922
 30
0.0
 11
16.08197600467252
 21
49.69566791399788
 31
0.0
  0
LINE
  5
2EEB
330
2E4B
100
AcDbEntity
  8
V3 Burner Box
100
AcDbLine
 10
16.51776017160698
 20
50.0528505008922
 30
0.0
 11
16.51776017160698
 21
49.69566791399788
 31
0.0
  0
LINE
  5
2EEC
330
2E4B
100
AcDbEntity
  8
V3 Burner Box
100
AcDbLine
 10
16.77176010608394
 20
50.0528505008922
 30
0.0
 11
16.70452489805878
 21
50.0528505008922
 31
0.0
  0
LINE
  5
2EED
330
2E4B
100
AcDbEntity
  8
V3 Burner Box
100
AcDbLine
 10
16.70452489805878
 20
50.0528505008922
 30
0.0
 11
16.70452489805878
 21
49.69566791399788
 31
0.0
  0
LINE
  5
2EEE
330
2E4B
100
AcDbEntity
  8
V3 Burner Box
100
AcDbLine
 10
15.83295656418988
 20
49.66871083685932
 30
0.0
 11
15.83295656418988
 21
49.94885792653703
 31
0.0
  0
LINE
  5
2EEF
330
2E4B
100
AcDbEntity
  8
V3 Burner Box
100
AcDbLine
 10
15.83295656418988
 20
49.38856374718163
 30
0.0
 11
15.83295656418988
 21
49.66871083685932
 31
0.0
  0
LINE
  5
2EF0
330
2E4B
100
AcDbEntity
  8
V3 Burner Box
100
AcDbLine
 10
16.77176010608394
 20
49.25761409568789
 30
0.0
 11
16.70452489805878
 21
49.25761409568789
 31
0.0
  0
LINE
  5
2EF1
330
2E4B
100
AcDbEntity
  8
V3 Burner Box
100
AcDbLine
 10
16.70452489805878
 20
49.28457117282643
 30
0.0
 11
16.70452489805878
 21
49.25761409568789
 31
0.0
  0
LINE
  5
2EF2
330
2E4B
100
AcDbEntity
  8
V3 Burner Box
100
AcDbLine
 10
16.51776017160698
 20
49.25761409568789
 30
0.0
 11
16.08197600467252
 21
49.25761409568789
 31
0.0
  0
LINE
  5
2EF3
330
2E4B
100
AcDbEntity
  8
V3 Burner Box
100
AcDbLine
 10
16.08197600467252
 20
49.28457117282643
 30
0.0
 11
16.08197600467252
 21
49.25761409568789
 31
0.0
  0
LINE
  5
2EF4
330
2E4B
100
AcDbEntity
  8
V3 Burner Box
100
AcDbLine
 10
16.51776017160698
 20
49.28457117282643
 30
0.0
 11
16.51776017160698
 21
49.25761409568789
 31
0.0
  0
LINE
  5
2EF5
330
2E4B
100
AcDbEntity
  8
V3 Burner Box
100
AcDbLine
 10
16.77176010608394
 20
50.07980757803075
 30
0.0
 11
16.70452489805878
 21
50.07980757803075
 31
0.0
  0
LINE
  5
2EF6
330
2E4B
100
AcDbEntity
  8
V3 Burner Box
100
AcDbLine
 10
16.70452489805878
 20
50.07980757803075
 30
0.0
 11
16.70452489805878
 21
50.0528505008922
 31
0.0
  0
LINE
  5
2EF7
330
2E4B
100
AcDbEntity
  8
V3 Burner Box
100
AcDbLine
 10
16.51776017160698
 20
50.07980757803075
 30
0.0
 11
16.08197600467252
 21
50.07980757803075
 31
0.0
  0
LINE
  5
2EF8
330
2E4B
100
AcDbEntity
  8
V3 Burner Box
100
AcDbLine
 10
16.08197600467252
 20
50.07980757803075
 30
0.0
 11
16.08197600467252
 21
50.0528505008922
 31
0.0
  0
LINE
  5
2EF9
330
2E4B
100
AcDbEntity
  8
V3 Burner Box
100
AcDbLine
 10
16.51776017160698
 20
50.07980757803075
 30
0.0
 11
16.51776017160698
 21
50.0528505008922
 31
0.0
  0
LINE
  5
2EFA
330
2E4B
100
AcDbEntity
  8
V3 Burner Box
100
AcDbLine
 10
16.77176010608394
 20
39.53241185549197
 30
0.0
 11
16.39325074354528
 21
39.53241185549197
 31
0.0
  0
LINE
  5
2EFB
330
2E4B
100
AcDbEntity
  8
V3 Burner Box
100
AcDbLine
 10
16.77176010608394
 20
36.3093868163614
 30
0.0
 11
16.39325074354528
 21
36.3093868163614
 31
0.0
  0
LINE
  5
2EFC
330
2E4B
100
AcDbEntity
  8
V3 Burner Box
100
AcDbLine
 10
16.39325074354528
 20
36.3093868163614
 30
0.0
 11
16.39325074354528
 21
39.53241185549197
 31
0.0
  0
LINE
  5
2EFD
330
2E4B
100
AcDbEntity
  8
V3 Burner Box
100
AcDbLine
 10
14.89913293193089
 20
36.01128353526546
 30
0.0
 11
14.89913293193089
 21
39.83373466394464
 31
0.0
  0
LINE
  5
2EFE
330
2E4B
100
AcDbEntity
  8
V3 Burner Box
100
AcDbLine
 10
16.39325074354528
 20
39.53241185549197
 30
0.0
 11
16.76678019644888
 21
39.98783224672429
 31
0.0
  0
LINE
  5
2EFF
330
2E4B
100
AcDbEntity
  8
V3 Burner Box
100
AcDbLine
 10
16.77176010608394
 20
39.98783224672429
 30
0.0
 11
16.76678019644888
 21
39.98783224672429
 31
0.0
  0
LINE
  5
2F00
330
2E4B
100
AcDbEntity
  8
V3 Burner Box
100
AcDbLine
 10
16.39325074354528
 20
39.87560546600118
 30
0.0
 11
16.76678019644888
 21
40.33102585723354
 31
0.0
  0
LINE
  5
2F01
330
2E4B
100
AcDbEntity
  8
V3 Burner Box
100
AcDbLine
 10
16.76678019644888
 20
40.33102585723354
 30
0.0
 11
16.76678019644888
 21
40.28422656915704
 31
0.0
  0
LINE
  5
2F02
330
2E4B
100
AcDbEntity
  8
V3 Burner Box
100
AcDbLine
 10
16.76678019644888
 20
40.28422656915704
 30
0.0
 11
16.41679574695008
 21
39.85813312405232
 31
0.0
  0
ARC
  5
2F03
330
2E4B
100
AcDbEntity
  8
V3 Burner Box
100
AcDbCircle
 10
15.68755809178792
 20
39.73268733448289
 30
0.0
 40
0.7399487845973618
100
AcDbArc
 50
350.3065489045799
 51
9.760671915291423
  0
LINE
  5
2F04
330
2E4B
100
AcDbEntity
  8
V3 Burner Box
100
AcDbLine
 10
16.41694242112498
 20
39.60809719063256
 30
0.0
 11
16.76678019644888
 21
40.03463124262117
 31
0.0
  0
LINE
  5
2F05
330
2E4B
100
AcDbEntity
  8
V3 Burner Box
100
AcDbLine
 10
16.76678019644888
 20
40.03463124262117
 30
0.0
 11
16.76678019644888
 21
39.98783224672429
 31
0.0
  0
LINE
  5
2F06
330
2E4B
100
AcDbEntity
  8
V3 Burner Box
100
AcDbLine
 10
16.39325074354528
 20
39.87560546600118
 30
0.0
 11
16.39325074354528
 21
39.53241185549197
 31
0.0
  0
LINE
  5
2F07
330
2E4B
100
AcDbEntity
  8
V3 Burner Box
100
AcDbLine
 10
16.77176010608394
 20
40.28422656915704
 30
0.0
 11
16.76678019644888
 21
40.28422656915704
 31
0.0
  0
LINE
  5
2F08
330
2E4B
100
AcDbEntity
  8
V3 Burner Box
100
AcDbLine
 10
16.77176010608394
 20
40.33102585723354
 30
0.0
 11
16.76678019644888
 21
40.33102585723354
 31
0.0
  0
LINE
  5
2F09
330
2E4B
100
AcDbEntity
  8
V3 Burner Box
100
AcDbLine
 10
16.77176010608394
 20
40.03463124262117
 30
0.0
 11
16.76678019644888
 21
40.03463124262117
 31
0.0
  0
LINE
  5
2F0A
330
2E4B
100
AcDbEntity
  8
V3 Burner Box
100
AcDbLine
 10
16.76678019644888
 20
35.55816493516811
 30
0.0
 11
16.76678019644888
 21
35.51158215219836
 31
0.0
  0
LINE
  5
2F0B
330
2E4B
100
AcDbEntity
  8
V3 Burner Box
100
AcDbLine
 10
16.76678019644888
 20
35.80660819741793
 30
0.0
 11
16.41679574695008
 21
36.23459701179057
 31
0.0
  0
ARC
  5
2F0C
330
2E4B
100
AcDbEntity
  8
V3 Burner Box
100
AcDbCircle
 10
15.69124544951654
 20
36.1095501202599
 30
0.0
 40
0.7362472133647822
100
AcDbArc
 50
350.2887086658827
 51
9.778726888998928
  0
LINE
  5
2F0D
330
2E4B
100
AcDbEntity
  8
V3 Burner Box
100
AcDbLine
 10
16.41694242112498
 20
35.98535726786597
 30
0.0
 11
16.76678019644888
 21
35.55816493516811
 31
0.0
  0
LINE
  5
2F0E
330
2E4B
100
AcDbEntity
  8
V3 Burner Box
100
AcDbLine
 10
16.39325074354528
 20
35.96770494326425
 30
0.0
 11
16.76678019644888
 21
35.51158215219836
 31
0.0
  0
LINE
  5
2F0F
330
2E4B
100
AcDbEntity
  8
V3 Burner Box
100
AcDbLine
 10
16.6206097392447
 20
35.98535726786597
 30
0.0
 11
16.41694242112498
 21
35.98535726786597
 31
0.0
  0
LINE
  5
2F10
330
2E4B
100
AcDbEntity
  8
V3 Burner Box
100
AcDbLine
 10
16.6220186294266
 20
39.85813312405232
 30
0.0
 11
16.41679574695008
 21
39.85813312405232
 31
0.0
  0
LINE
  5
2F11
330
2E4B
100
AcDbEntity
  8
V3 Burner Box
100
AcDbLine
 10
16.39325074354528
 20
39.87553388199153
 30
0.0
 11
16.39325074354528
 21
40.00929371717865
 31
0.0
  0
LINE
  5
2F12
330
2E4B
100
AcDbEntity
  8
V3 Burner Box
100
AcDbLine
 10
16.39325074354528
 20
35.83572506639071
 30
0.0
 11
16.39325074354528
 21
35.96770494326425
 31
0.0
  0
LINE
  5
2F13
330
2E4B
100
AcDbEntity
  8
BURNER Radiant Tubes
  6
Continuous
100
AcDbLine
 10
39.55506231504049
 20
44.92768851007667
 30
0.0
 11
39.55506231504049
 21
40.96329848874783
 31
0.0
  0
LINE
  5
2F14
330
2E4B
100
AcDbEntity
  8
BURNER Radiant Tubes
  6
Continuous
100
AcDbLine
 10
39.63972895986615
 20
44.84302193829591
 30
0.0
 11
39.63972895986615
 21
41.04796513357348
 31
0.0
  0
LINE
  5
2F15
330
2E4B
100
AcDbEntity
  8
BURNER Radiant Tubes
  6
Continuous
100
AcDbLine
 10
43.53937686891838
 20
44.84302193829591
 30
0.0
 11
43.53937686891838
 21
41.04796513357348
 31
0.0
  0
LINE
  5
2F16
330
2E4B
100
AcDbEntity
  8
V3 Burner Box
100
AcDbLine
 10
16.77176010608394
 20
37.31197141867995
 30
0.0
 11
16.77176010608394
 21
41.73748963338254
 31
0.0
  0
LINE
  5
2F17
330
2E4B
100
AcDbEntity
  8
V3 Burner Box
100
AcDbLine
 10
16.92714883065412
 20
37.10067119987339
 30
0.0
 11
16.92714883065412
 21
37.31197141867995
 31
0.0
  0
ARC
  5
2F18
330
2E4B
100
AcDbEntity
  8
V3 Burner Box
100
AcDbCircle
 10
16.90772533320339
 20
37.2380168409186
 30
0.0
 40
0.1387122826837494
100
AcDbArc
 50
191.421765500252
 51
278.0494222410637
  0
SPLINE
  5
2F19
330
2E4B
100
AcDbEntity
  8
V3 Burner Box
100
AcDbSpline
210
0.0
220
0.0
230
1.0
 70
    24
 71
     3
 72
    19
 73
    15
 74
     0
 42
0.0000000001
 43
0.0000000001
 40
0.0
 40
0.0
 40
0.0
 40
0.0
 40
0.063059355195169
 40
0.1256589138930676
 40
0.1879482627571258
 40
0.2500792290769784
 40
0.3122048013557642
 40
0.3744780078516985
 40
0.4370507936679167
 40
0.5000729371058581
 40
0.6255632843448912
 40
0.7499007096737196
 40
0.8743065127319205
 40
1.0
 40
1.0
 40
1.0
 40
1.0
 10
16.77176031998374
 20
37.21054793027966
 30
0.0
 10
16.77176031998374
 20
37.2122456647124
 30
0.0
 10
16.77176031998374
 20
37.2156287545686
 30
0.0
 10
16.77176031998374
 20
37.22098314643849
 30
0.0
 10
16.77176031998374
 20
37.22651378333765
 30
0.0
 10
16.77176031998374
 20
37.23224205864025
 30
0.0
 10
16.77176031998374
 20
37.23816217501918
 30
0.0
 10
16.77176031998374
 20
37.244275475121
 30
0.0
 10
16.77176031998374
 20
37.25058170460496
 30
0.0
 10
16.77176031998374
 20
37.25920467491409
 30
0.0
 10
16.77176031998374
 20
37.27027652057062
 30
0.0
 10
16.77176031998374
 20
37.2839253967781
 30
0.0
 10
16.77176031998374
 20
37.29785638544496
 30
0.0
 10
16.77176031998374
 20
37.30725027013349
 30
0.0
 10
16.77176031998374
 20
37.31197139558712
 30
0.0
  0
LINE
  5
2F1A
330
2E4B
100
AcDbEntity
  8
V3 Burner Box
100
AcDbLine
 10
27.377007103431
 20
37.10067119987339
 30
0.0
 11
27.377007103431
 21
37.31197141867995
 31
0.0
  0
LINE
  5
2F1B
330
2E4B
100
AcDbEntity
  8
V3 Burner Box
100
AcDbLine
 10
16.92714883065412
 20
37.10067119987339
 30
0.0
 11
27.377007103431
 21
37.10067119987339
 31
0.0
  0
SPLINE
  5
2F1C
330
2E4B
100
AcDbEntity
  8
V3 Burner Box
100
AcDbSpline
210
0.0
220
0.0
230
1.0
 70
     8
 71
     3
 72
     8
 73
     4
 74
     0
 42
0.0000000001
 43
0.0000000001
 40
0.0
 40
0.0
 40
0.0
 40
0.0
 40
1.0
 40
1.0
 40
1.0
 40
1.0
 10
27.53239561409905
 20
37.31197139558712
 30
0.0
 10
27.53239561410057
 20
38.71741863780001
 30
0.0
 10
27.53239561410135
 20
40.12286588001287
 30
0.0
 10
27.53239582800119
 20
41.73748963338254
 30
0.0
  0
SPLINE
  5
2F1D
330
2E4B
100
AcDbEntity
  8
V3 Burner Box
100
AcDbSpline
210
0.0
220
0.0
230
1.0
 70
     8
 71
     3
 72
    20
 73
    16
 74
     0
 42
0.0000000001
 43
0.0000000001
 40
0.0
 40
0.0
 40
0.0
 40
0.0
 40
0.0571076113968939
 40
0.1142154844886749
 40
0.1713246468711098
 40
0.2284361261380245
 40
0.2855509498803175
 40
0.323523731481265
 40
0.4280462888511203
 40
0.499027316493492
 40
0.5719640174872729
 40
0.6789717103013297
 40
0.785984692977412
 40
0.8929963335350215
 40
1.0
 40
1.0
 40
1.0
 40
1.0
 10
27.53239561410126
 20
37.21054732645491
 30
0.0
 10
27.53239561409869
 20
37.21208351292796
 30
0.0
 10
27.53239561409353
 20
37.21515589291359
 30
0.0
 10
27.53239561412539
 20
37.22001175686525
 30
0.0
 10
27.53239561397624
 20
37.22503631319707
 30
0.0
 10
27.53239561390666
 20
37.23023970901812
 30
0.0
 10
27.5323956119949
 20
37.23500189201747
 30
0.0
 10
27.53239561356783
 20
37.24141259175933
 30
0.0
 10
27.53239561409954
 20
37.2484973077794
 30
0.0
 10
27.53239561410328
 20
37.25701623704707
 30
0.0
 10
27.53239561408958
 20
37.26581840475414
 30
0.0
 10
27.53239561290913
 20
37.27613912549661
 30
0.0
 10
27.5323956124824
 20
37.28794117676304
 30
0.0
 10
27.5323956135054
 20
37.29991419933869
 30
0.0
 10
27.53239561390109
 20
37.30795243000434
 30
0.0
 10
27.53239561409892
 20
37.31197139558712
 30
0.0
  0
ARC
  5
2F1E
330
2E4B
100
AcDbEntity
  8
V3 Burner Box
100
AcDbCircle
 10
27.3964306086523
 20
37.23801697602163
 30
0.0
 40
0.138712417543792
100
AcDbArc
 50
261.9505823951026
 51
348.5779425723338
  0
LINE
  5
2F1F
330
2E4B
100
AcDbEntity
  8
V3 Burner Box
100
AcDbLine
 10
27.53239582800119
 20
34.82538017306611
 30
0.0
 11
27.53239582800119
 21
37.21054710328348
 31
0.0
  0
LINE
  5
2F20
330
2E4B
100
AcDbEntity
  8
V3 Burner Box
100
AcDbLine
 10
16.77176010608394
 20
34.82537958870685
 30
0.0
 11
16.77176010608394
 21
37.21054768764273
 31
0.0
  0
SPLINE
  5
2F21
330
2E4B
100
AcDbEntity
  8
V3 Burner Box
100
AcDbSpline
210
0.0
220
0.0
230
1.0
 70
     8
 71
     3
 72
    20
 73
    16
 74
     0
 42
0.0000000001
 43
0.0000000001
 40
0.0
 40
0.0
 40
0.0
 40
0.0
 40
0.0571076109422516
 40
0.1142154840540613
 40
0.1713246469122713
 40
0.2284361270917894
 40
0.2855509521645883
 40
0.3235240720500549
 40
0.4280462899475359
 40
0.4990273053559064
 40
0.5719640166358591
 40
0.6789717090100826
 40
0.7859846918194383
 40
0.892996332876452
 40
1.0
 40
1.0
 40
1.0
 40
1.0
 10
27.53239561410194
 20
34.78336808550219
 30
0.0
 10
27.53239561409937
 20
34.78339622224043
 30
0.0
 10
27.53239561409421
 20
34.78345249584609
 30
0.0
 10
27.53239561412606
 20
34.78389943859426
 30
0.0
 10
27.53239561397679
 20
34.78461010243086
 30
0.0
 10
27.53239561390704
 20
34.78561219269271
 30
0.0
 10
27.53239561199466
 20
34.78674313752807
 30
0.0
 10
27.53239561356783
 20
34.78852984744519
 30
0.0
 10
27.53239561409994
 20
34.790873034935
 30
0.0
 10
27.53239561410408
 20
34.79420263291081
 30
0.0
 10
27.53239561408981
 20
34.79804267897815
 30
0.0
 10
27.53239561290847
 20
34.80311747373348
 30
0.0
 10
27.53239561248153
 20
34.80969249822208
 30
0.0
 10
27.53239561350486
 20
34.81704901557002
 30
0.0
 10
27.5323956139014
 20
34.82260301165901
 30
0.0
 10
27.53239561409966
 20
34.82537990623618
 30
0.0
  0
SPLINE
  5
2F22
330
2E4B
100
AcDbEntity
  8
V3 Burner Box
100
AcDbSpline
210
0.0
220
0.0
230
1.0
 70
    24
 71
     3
 72
    19
 73
    15
 74
     0
 42
0.0000000001
 43
0.0000000001
 40
0.0
 40
0.0
 40
0.0
 40
0.0
 40
0.0630593565784893
 40
0.1256589161226741
 40
0.187948265363048
 40
0.2500792316607099
 40
0.3122048035937301
 40
0.3744780094977003
 40
0.4370507945543102
 40
0.500072937143688
 40
0.625563282807773
 40
0.7499007071969804
 40
0.8743065105727712
 40
1.0
 40
1.0
 40
1.0
 40
1.0
 10
16.77176031998374
 20
34.78336892805108
 30
0.0
 10
16.77176031998374
 20
34.7834020870455
 30
0.0
 10
16.77176031998374
 20
34.78346816325569
 30
0.0
 10
16.77176031998374
 20
34.78399969051152
 30
0.0
 10
16.77176031998374
 20
34.7848487674206
 30
0.0
 10
16.77176031998374
 20
34.78604577628902
 30
0.0
 10
16.77176031998374
 20
34.78758262255728
 30
0.0
 10
16.77176031998374
 20
34.7894614162969
 30
0.0
 10
16.77176031998374
 20
34.7916815733951
 30
0.0
 10
16.77176031998374
 20
34.79508053385703
 30
0.0
 10
16.77176031998374
 20
34.80009032086832
 30
0.0
 10
16.77176031998374
 20
34.80732999359101
 30
0.0
 10
16.77176031998374
 20
34.81567465004913
 30
0.0
 10
16.77176031998374
 20
34.82213333905896
 30
0.0
 10
16.77176031998374
 20
34.82537931048764
 30
0.0
  0
ARC
  5
2F23
330
2E4B
100
AcDbEntity
  8
V3 Burner Box
100
AcDbCircle
 10
16.92714855527785
 20
34.78336808550219
 30
0.0
 40
0.1553882352952651
100
AcDbArc
 50
179.9996893297936
 51
270.0
  0
LINE
  5
2F24
330
2E4B
100
AcDbEntity
  8
V3 Burner Box
100
AcDbLine
 10
27.377007103431
 20
34.62798010803674
 30
0.0
 11
16.92714883065412
 21
34.62798010803674
 31
0.0
  0
ARC
  5
2F25
330
2E4B
100
AcDbEntity
  8
V3 Burner Box
100
AcDbCircle
 10
27.37700737880726
 20
34.78336808550219
 30
0.0
 40
0.1553882352943986
100
AcDbArc
 50
270.0
 51
0.0
  0
LINE
  5
2F26
330
2E4B
100
AcDbEntity
  8
V3 Burner Box
100
AcDbLine
 10
27.53239582800119
 20
50.46606671310875
 30
0.0
 11
27.53239582800119
 21
46.24972500956292
 31
0.0
  0
LINE
  5
2F27
330
2E4B
100
AcDbEntity
  8
V3 Burner Box
100
AcDbLine
 10
27.377007103431
 20
50.67736693191529
 30
0.0
 11
27.377007103431
 21
50.46606671310875
 31
0.0
  0
ARC
  5
2F28
330
2E4B
100
AcDbEntity
  8
V3 Burner Box
100
AcDbCircle
 10
27.39643060088174
 20
50.5400212908701
 30
0.0
 40
0.1387122826837494
100
AcDbArc
 50
11.4217655002571
 51
98.04942224106371
  0
SPLINE
  5
2F29
330
2E4B
100
AcDbEntity
  8
V3 Burner Box
100
AcDbSpline
210
0.0
220
0.0
230
1.0
 70
    24
 71
     3
 72
     9
 73
     5
 74
     0
 42
0.0000000001
 43
0.0000000001
 40
0.0
 40
0.0
 40
0.0
 40
0.0
 40
0.5000014071560247
 40
1.0
 40
1.0
 40
1.0
 40
1.0
 10
27.53239582800119
 20
50.56749044414598
 30
0.0
 10
27.53239582800119
 20
50.55267560104276
 30
0.0
 10
27.53239582800119
 20
50.52304599822324
 30
0.0
 10
27.53239582800119
 20
50.48505977251188
 30
0.0
 10
27.53239582800119
 20
50.46606671310875
 30
0.0
  0
LINE
  5
2F2A
330
2E4B
100
AcDbEntity
  8
V3 Burner Box
100
AcDbLine
 10
16.92714883065412
 20
50.67736693191529
 30
0.0
 11
16.92714883065412
 21
50.46606671310875
 31
0.0
  0
LINE
  5
2F2B
330
2E4B
100
AcDbEntity
  8
V3 Burner Box
100
AcDbLine
 10
27.377007103431
 20
50.67736693191529
 30
0.0
 11
16.92714883065412
 21
50.67736693191529
 31
0.0
  0
SPLINE
  5
2F2C
330
2E4B
100
AcDbEntity
  8
V3 Burner Box
100
AcDbSpline
210
0.0
220
0.0
230
1.0
 70
    24
 71
     1
 72
     4
 73
     2
 74
     0
 42
0.0000000001
 43
0.0000000001
 40
0.0
 40
0.0
 40
1.0
 40
1.0
 10
16.77176010608394
 20
50.46606671310875
 30
0.0
 10
16.77176010608394
 20
46.24972500956292
 30
0.0
  0
SPLINE
  5
2F2D
330
2E4B
100
AcDbEntity
  8
V3 Burner Box
100
AcDbSpline
210
0.0
220
0.0
230
1.0
 70
    24
 71
     3
 72
     9
 73
     5
 74
     0
 42
0.0000000001
 43
0.0000000001
 40
0.0
 40
0.0
 40
0.0
 40
0.0
 40
0.4990128178920527
 40
1.0
 40
1.0
 40
1.0
 40
1.0
 10
16.77176010608394
 20
50.5674910285052
 30
0.0
 10
16.77176010608394
 20
50.55270877991649
 30
0.0
 10
16.77176010608394
 20
50.52308579617996
 30
0.0
 10
16.77176010608394
 20
50.48509807466515
 30
0.0
 10
16.77176010608394
 20
50.46606671310875
 30
0.0
  0
ARC
  5
2F2E
330
2E4B
100
AcDbEntity
  8
V3 Burner Box
100
AcDbCircle
 10
16.90772532543283
 20
50.54002115576706
 30
0.0
 40
0.1387124175437911
100
AcDbArc
 50
81.95058239510256
 51
168.5779425723338
  0
LINE
  5
2F2F
330
2E4B
100
AcDbEntity
  8
V3 Burner Box
100
AcDbLine
 10
16.77176010608394
 20
52.95265795872258
 30
0.0
 11
16.77176010608394
 21
50.5674910285052
 31
0.0
  0
LINE
  5
2F30
330
2E4B
100
AcDbEntity
  8
V3 Burner Box
100
AcDbLine
 10
27.53239582800119
 20
52.95265854308185
 30
0.0
 11
27.53239582800119
 21
50.56749044414598
 31
0.0
  0
SPLINE
  5
2F31
330
2E4B
100
AcDbEntity
  8
V3 Burner Box
100
AcDbSpline
210
0.0
220
0.0
230
1.0
 70
    24
 71
     3
 72
     9
 73
     5
 74
     0
 42
0.0000000001
 43
0.0000000001
 40
0.0
 40
0.0
 40
0.0
 40
0.0
 40
0.4990117529007352
 40
0.9999999999999998
 40
0.9999999999999998
 40
0.9999999999999998
 40
0.9999999999999998
 10
16.77176010608394
 20
52.99466988354105
 30
0.0
 10
16.77176010608394
 20
52.9927198604654
 30
0.0
 10
16.77176010608394
 20
52.98881209062976
 30
0.0
 10
16.77176010608394
 20
52.9647252052214
 30
0.0
 10
16.77176010608394
 20
52.95265795872258
 30
0.0
  0
SPLINE
  5
2F32
330
2E4B
100
AcDbEntity
  8
V3 Burner Box
100
AcDbSpline
210
0.0
220
0.0
230
1.0
 70
    24
 71
     3
 72
     9
 73
     5
 74
     0
 42
0.0000000001
 43
0.0000000001
 40
0.0
 40
0.0
 40
0.0
 40
0.0
 40
0.499999533815269
 40
1.0
 40
1.0
 40
1.0
 40
1.0
 10
27.53239582800119
 20
52.99466929918178
 30
0.0
 10
27.53239582800119
 20
52.99271110489399
 30
0.0
 10
27.53239582800119
 20
52.98879471266694
 30
0.0
 10
27.53239582800119
 20
52.96470394043071
 30
0.0
 10
27.53239582800119
 20
52.95265854308185
 30
0.0
  0
LINE
  5
2F33
330
2E4B
100
AcDbEntity
  8
V3 Burner Box
100
AcDbLine
 10
16.92714883065412
 20
53.15005802375195
 30
0.0
 11
27.377007103431
 21
53.15005802375195
 31
0.0
  0
ARC
  5
2F34
330
2E4B
100
AcDbEntity
  8
V3 Burner Box
100
AcDbCircle
 10
27.37700737880726
 20
52.99467004628649
 30
0.0
 40
0.1553882352952607
100
AcDbArc
 50
359.9996893297937
 51
90.0
  0
ARC
  5
2F35
330
2E4B
100
AcDbEntity
  8
V3 Burner Box
100
AcDbCircle
 10
16.92714855527785
 20
52.99467004628649
 30
0.0
 40
0.1553882352943986
100
AcDbArc
 50
90.0
 51
180.0
  0
LINE
  5
2F36
330
2E4B
100
AcDbEntity
  8
V3 Burner Box
100
AcDbLine
 10
17.47050944730068
 20
41.1417375566071
 30
0.0
 11
17.47050944730068
 21
41.73748963338254
 31
0.0
  0
LINE
  5
2F37
330
2E4B
100
AcDbEntity
  8
V3 Burner Box
100
AcDbLine
 10
17.47050944730068
 20
46.24972500956292
 30
0.0
 11
17.47050944730068
 21
46.63630057518155
 31
0.0
  0
LINE
  5
2F38
330
2E4B
100
AcDbEntity
  8
V3 Burner Box
100
AcDbLine
 10
17.48545063710401
 20
43.83998067290963
 30
0.0
 11
17.48545063710401
 21
43.90891571811514
 31
0.0
  0
LINE
  5
2F39
330
2E4B
100
AcDbEntity
  8
V3 Burner Box
100
AcDbLine
 10
17.48545063710401
 20
43.90891571811514
 30
0.0
 11
17.48545063710401
 21
43.93805926674049
 31
0.0
  0
ELLIPSE
  5
2F3A
330
2E4B
100
AcDbEntity
  8
V3 Burner Box
100
AcDbEllipse
 10
-3650.794053998593
 20
43.88901906591279
 30
0.0
 11
-3668.282487231742
 21
0.0000000000184457
 31
0.0
210
0.0
220
0.0
230
1.0
 40
0.0104735558697002
 41
3.142869065065816
 42
3.144719211335901
  0
LINE
  5
2F3B
330
2E4B
100
AcDbEntity
  8
V3 Burner Box
100
AcDbLine
 10
17.47050944730068
 20
44.00914245768271
 30
0.0
 11
17.47050944730068
 21
46.24972500956292
 31
0.0
  0
LINE
  5
2F3C
330
2E4B
100
AcDbEntity
  8
V3 Burner Box
100
AcDbLine
 10
17.47050944730068
 20
41.73748963338254
 30
0.0
 11
17.47050944730068
 21
43.76889567410596
 31
0.0
  0
ELLIPSE
  5
2F3D
330
2E4B
100
AcDbEntity
  8
V3 Burner Box
100
AcDbEllipse
 10
-3650.794053998593
 20
43.88901906591279
 30
0.0
 11
-3668.282487231742
 21
0.0000000000184457
 31
0.0
210
0.0
220
0.0
230
1.0
 40
0.0104735558697002
 41
3.138466095845273
 42
3.140316277246221
  0
LINE
  5
2F3E
330
2E4B
100
AcDbEntity
  8
V3 Burner Box
100
AcDbLine
 10
26.81870529698111
 20
43.93805745887904
 30
0.0
 11
26.81870529698111
 21
43.90891571811514
 31
0.0
  0
LINE
  5
2F3F
330
2E4B
100
AcDbEntity
  8
V3 Burner Box
100
AcDbLine
 10
26.81870529698111
 20
43.90891571811514
 30
0.0
 11
26.81870529698111
 21
43.83997886504817
 31
0.0
  0
ELLIPSE
  5
2F40
330
2E4B
100
AcDbEntity
  8
V3 Burner Box
100
AcDbEllipse
 10
3695.088295371636
 20
43.88901906591232
 30
0.0
 11
-3668.272572670701
 21
-0.000000000018001
 31
0.0
210
0.0
220
0.0
230
1.0
 40
0.0104735700232019
 41
0.0012764131996538
 42
0.0031265619700998
  0
LINE
  5
2F41
330
2E4B
100
AcDbEntity
  8
V3 Burner Box
100
AcDbLine
 10
26.83364648678445
 20
43.76889567410596
 30
0.0
 11
26.83364648678445
 21
41.73748963338254
 31
0.0
  0
LINE
  5
2F42
330
2E4B
100
AcDbEntity
  8
V3 Burner Box
100
AcDbLine
 10
26.83364648678445
 20
46.24972500956292
 30
0.0
 11
26.83364648678445
 21
44.00914245768271
 31
0.0
  0
ELLIPSE
  5
2F43
330
2E4B
100
AcDbEntity
  8
V3 Burner Box
100
AcDbEllipse
 10
3695.088295371636
 20
43.88901906591232
 30
0.0
 11
-3668.272572670701
 21
-0.000000000018001
 31
0.0
210
0.0
220
0.0
230
1.0
 40
0.0104735700232019
 41
6.280058745211043
 42
6.281908929112416
  0
LINE
  5
2F44
330
2E4B
100
AcDbEntity
  8
V3 Burner Box
100
AcDbLine
 10
26.83364648678445
 20
46.63630057518155
 30
0.0
 11
26.83364648678445
 21
46.24972500956292
 31
0.0
  0
LINE
  5
2F45
330
2E4B
100
AcDbEntity
  8
V3 Burner Box
100
AcDbLine
 10
26.83364648678445
 20
41.73748963338254
 30
0.0
 11
26.83364648678445
 21
41.1417375566071
 31
0.0
  0
LINE
  5
2F46
330
2E4B
100
AcDbEntity
  8
V3 Burner Box
100
AcDbLine
 10
17.67075709501623
 20
46.78698433114968
 30
0.0
 11
26.63339883906889
 21
46.78698433114968
 31
0.0
  0
LINE
  5
2F47
330
2E4B
100
AcDbEntity
  8
V3 Burner Box
100
AcDbLine
 10
17.67075709501623
 20
40.99105380063899
 30
0.0
 11
26.63339883906889
 21
40.99105380063899
 31
0.0
  0
ELLIPSE
  5
2F48
330
2E4B
100
AcDbEntity
  8
V3 Burner Box
100
AcDbEllipse
 10
26.56952141446206
 20
41.18980452799674
 30
0.0
 11
-0.2562846120245637
 21
0.0932799702774286
 31
0.0
210
0.0
220
0.0
230
1.0
 40
0.6847910787717108
 41
2.059329530386834
 42
3.385859255385281
  0
ELLIPSE
  5
2F49
330
2E4B
100
AcDbEntity
  8
V3 Burner Box
100
AcDbEllipse
 10
26.56952141446206
 20
46.58823360379172
 30
0.0
 11
0.2562846120245592
 21
0.0932799702774196
 31
0.0
210
0.0
220
0.0
230
0.9999999999999998
 40
0.6847910787717538
 41
6.038918705386064
 42
7.365448430382351
  0
ELLIPSE
  5
2F4A
330
2E4B
100
AcDbEntity
  8
V3 Burner Box
100
AcDbEllipse
 10
17.73463451962307
 20
41.18980452799642
 30
0.0
 11
-0.2562846120245592
 21
-0.0932799702774196
 31
0.0
210
0.0
220
0.0
230
0.9999999999999998
 40
0.6847910787717341
 41
6.038918705383973
 42
7.365448430382002
  0
ELLIPSE
  5
2F4B
330
2E4B
100
AcDbEntity
  8
V3 Burner Box
100
AcDbEllipse
 10
17.73463451962307
 20
46.58823360379246
 30
0.0
 11
0.2562846120245681
 21
-0.0932799702774241
 31
0.0
210
0.0
220
0.0
230
0.9999999999999998
 40
0.6847910787717037
 41
2.059329530387128
 42
3.385859255386571
  0
LINE
  5
2F4C
330
2E4B
100
AcDbEntity
  8
V3 Burner Box
100
AcDbLine
 10
27.377007103431
 20
46.24972500956292
 30
0.0
 11
27.377007103431
 21
41.73748963338254
 31
0.0
  0
LINE
  5
2F4D
330
2E4B
100
AcDbEntity
  8
V3 Burner Box
100
AcDbLine
 10
16.92714883065412
 20
41.73748963338254
 30
0.0
 11
16.92714883065412
 21
46.24972500956292
 31
0.0
  0
LINE
  5
2F4E
330
2E4B
100
AcDbEntity
  8
V3 Burner Box
100
AcDbLine
 10
27.53239582800119
 20
41.73748963338254
 30
0.0
 11
27.53239582800119
 21
46.24972500956292
 31
0.0
  0
LINE
  5
2F4F
330
2E4B
100
AcDbEntity
  8
V3 Burner Box
100
AcDbLine
 10
16.77176010608394
 20
46.24972500956292
 30
0.0
 11
16.77176010608394
 21
41.73748963338254
 31
0.0
  0
LINE
  5
2F50
330
2E4B
100
AcDbEntity
  8
V3 Burner Box
100
AcDbLine
 10
27.53239582800119
 20
39.79343871010053
 30
0.0
 11
27.54235623163057
 21
39.79343871010053
 31
0.0
  0
LINE
  5
2F51
330
2E4B
100
AcDbEntity
  8
V3 Burner Box
100
AcDbLine
 10
27.54235623163057
 20
39.87497318927914
 30
0.0
 11
27.53239582800119
 21
39.87497318927914
 31
0.0
  0
LINE
  5
2F52
330
2E4B
100
AcDbEntity
  8
V3 Burner Box
100
AcDbLine
 10
27.54235623163057
 20
39.87497318927914
 30
0.0
 11
27.54235623163057
 21
39.79343871010053
 31
0.0
  0
LINE
  5
2F53
330
2E4B
100
AcDbEntity
  8
V3 Burner Box
100
AcDbLine
 10
27.54235623163057
 20
39.74363493887585
 30
0.0
 11
27.53239582800119
 21
39.74363493887585
 31
0.0
  0
LINE
  5
2F54
330
2E4B
100
AcDbEntity
  8
V3 Burner Box
100
AcDbLine
 10
27.54235623163057
 20
39.74363493887585
 30
0.0
 11
27.54235623163057
 21
39.66226933952409
 31
0.0
  0
LINE
  5
2F55
330
2E4B
100
AcDbEntity
  8
V3 Burner Box
100
AcDbLine
 10
27.53239582800119
 20
39.66226933952409
 30
0.0
 11
27.54235623163057
 21
39.66226933952409
 31
0.0
  0
LINE
  5
2F56
330
2E4B
100
AcDbEntity
  8
V3 Burner Box
100
AcDbLine
 10
27.53239582800119
 20
39.74404252946145
 30
0.0
 11
27.54235623163057
 21
39.74404252946145
 31
0.0
  0
LINE
  5
2F57
330
2E4B
100
AcDbEntity
  8
V3 Burner Box
100
AcDbLine
 10
27.54235623163057
 20
39.74363493887585
 30
0.0
 11
27.54235623163057
 21
39.74404252946145
 31
0.0
  0
LINE
  5
2F58
330
2E4B
100
AcDbEntity
  8
V3 Burner Box
100
AcDbLine
 10
27.53239582800119
 20
39.87521190003788
 30
0.0
 11
27.54235623163057
 21
39.87521190003788
 31
0.0
  0
LINE
  5
2F59
330
2E4B
100
AcDbEntity
  8
V3 Burner Box
100
AcDbLine
 10
27.54235623163057
 20
39.87521190003788
 30
0.0
 11
27.54235623163057
 21
39.87497318927914
 31
0.0
  0
LINE
  5
2F5A
330
2E4B
100
AcDbEntity
  8
V3 Burner Box
100
AcDbLine
 10
16.76802488167801
 20
35.80660819741793
 30
0.0
 11
16.76802488167801
 21
35.75875910792635
 31
0.0
  0
LINE
  5
2F5B
330
2E4B
100
AcDbEntity
  8
V3 Burner Box
100
AcDbLine
 10
16.66841733922867
 20
35.89424397165636
 30
0.0
 11
16.69511671393246
 21
35.89424397165636
 31
0.0
  0
LINE
  5
2F5C
330
2E4B
100
AcDbEntity
  8
V3 Burner Box
100
AcDbLine
 10
16.66841733922867
 20
35.89424397165636
 30
0.0
 11
16.66841733922867
 21
35.92689446108951
 31
0.0
  0
LINE
  5
2F5D
330
2E4B
100
AcDbEntity
  8
V3 Burner Box
100
AcDbLine
 10
16.76802488167801
 20
35.78583890051002
 30
0.0
 11
16.66841733922867
 21
35.78583890051002
 31
0.0
  0
LINE
  5
2F5E
330
2E4B
100
AcDbEntity
  8
V3 Burner Box
100
AcDbLine
 10
16.66841733922867
 20
35.78583890051002
 30
0.0
 11
16.66841733922867
 21
35.89424397165636
 31
0.0
  0
LINE
  5
2F5F
330
2E4B
100
AcDbEntity
  8
V3 Burner Box
100
AcDbLine
 10
16.76802488167801
 20
40.08291743284114
 30
0.0
 11
16.76802488167801
 21
40.03463124262117
 31
0.0
  0
LINE
  5
2F60
330
2E4B
100
AcDbEntity
  8
V3 Burner Box
100
AcDbLine
 10
16.68833873084668
 20
40.02236700259937
 30
0.0
 11
16.66841733922867
 21
40.02236700259937
 31
0.0
  0
LINE
  5
2F61
330
2E4B
100
AcDbEntity
  8
V3 Burner Box
100
AcDbLine
 10
16.68833873084668
 20
40.02236700259937
 30
0.0
 11
16.68833873084668
 21
40.04770219060488
 31
0.0
  0
LINE
  5
2F62
330
2E4B
100
AcDbEntity
  8
V3 Burner Box
100
AcDbLine
 10
16.76802488167801
 20
40.04770219060488
 30
0.0
 11
16.68833873084668
 21
40.04770219060488
 31
0.0
  0
LINE
  5
2F63
330
2E4B
100
AcDbEntity
  8
V3 Burner Box
100
AcDbLine
 10
16.66841733922867
 20
39.93950047648188
 30
0.0
 11
16.68875479464158
 21
39.93950047648188
 31
0.0
  0
LINE
  5
2F64
330
2E4B
100
AcDbEntity
  8
V3 Burner Box
100
AcDbLine
 10
16.66841733922867
 20
39.93950047648188
 30
0.0
 11
16.66841733922867
 21
40.02236700259937
 31
0.0
  0
LINE
  5
2F65
330
2E4B
100
AcDbEntity
  8
V3 Burner Box
100
AcDbLine
 10
16.66841733922867
 20
39.91470406771642
 30
0.0
 11
16.66841733922867
 21
39.93950047648188
 31
0.0
  0
LINE
  5
2F66
330
2E4B
100
AcDbEntity
  8
V3 Burner Box
100
AcDbLine
 10
16.66841733922867
 20
40.04960720180064
 30
0.0
 11
16.68833873084668
 21
40.04960720180064
 31
0.0
  0
LINE
  5
2F67
330
2E4B
100
AcDbEntity
  8
V3 Burner Box
100
AcDbLine
 10
16.66841733922867
 20
40.04960720180064
 30
0.0
 11
16.66841733922867
 21
40.05583764025745
 31
0.0
  0
LINE
  5
2F68
330
2E4B
100
AcDbEntity
  8
V3 Burner Box
100
AcDbLine
 10
16.76802488167801
 20
40.05583764025745
 30
0.0
 11
16.66841733922867
 21
40.05583764025745
 31
0.0
  0
LINE
  5
2F69
330
2E4B
100
AcDbEntity
  8
V3 Burner Box
100
AcDbLine
 10
16.68833873084668
 20
40.04770219060488
 30
0.0
 11
16.68833873084668
 21
40.04960720180064
 31
0.0
  0
LINE
  5
2F6A
330
2E4B
100
AcDbEntity
  8
V3 Burner Box
100
AcDbLine
 10
16.66841733922867
 20
40.04960720180064
 30
0.0
 11
16.66841733922867
 21
40.02236700259937
 31
0.0
  0
LINE
  5
2F6B
330
2E4B
100
AcDbEntity
  8
V3 Burner Box
100
AcDbLine
 10
16.77176010608394
 20
49.74761511499742
 30
0.0
 11
16.76179970245456
 21
49.74761511499742
 31
0.0
  0
LINE
  5
2F6C
330
2E4B
100
AcDbEntity
  8
V3 Burner Box
100
AcDbLine
 10
16.77176010608394
 20
49.6647482967003
 30
0.0
 11
16.76179970245456
 21
49.6647482967003
 31
0.0
  0
LINE
  5
2F6D
330
2E4B
100
AcDbEntity
  8
V3 Burner Box
100
AcDbLine
 10
16.76179970245456
 20
49.6647482967003
 30
0.0
 11
16.76179970245456
 21
49.74761511499742
 31
0.0
  0
LINE
  5
2F6E
330
2E4B
100
AcDbEntity
  8
V3 Burner Box
100
AcDbLine
 10
16.77176010608394
 20
49.55634322555393
 30
0.0
 11
16.76179970245456
 21
49.55634322555393
 31
0.0
  0
LINE
  5
2F6F
330
2E4B
100
AcDbEntity
  8
V3 Burner Box
100
AcDbLine
 10
16.76179970245456
 20
49.55634322555393
 30
0.0
 11
16.76179970245456
 21
49.6647482967003
 31
0.0
  0
LINE
  5
2F70
330
2E4B
100
AcDbEntity
  8
V3 Burner Box
100
AcDbLine
 10
16.76179970245456
 20
49.77485502201904
 30
0.0
 11
16.77176010608394
 21
49.77485502201904
 31
0.0
  0
LINE
  5
2F71
330
2E4B
100
AcDbEntity
  8
V3 Burner Box
100
AcDbLine
 10
16.76179970245456
 20
49.77485502201904
 30
0.0
 11
16.76179970245456
 21
49.78108546047586
 31
0.0
  0
LINE
  5
2F72
330
2E4B
100
AcDbEntity
  8
V3 Burner Box
100
AcDbLine
 10
16.77176010608394
 20
49.78108546047586
 30
0.0
 11
16.76179970245456
 21
49.78108546047586
 31
0.0
  0
LINE
  5
2F73
330
2E4B
100
AcDbEntity
  8
V3 Burner Box
100
AcDbLine
 10
16.76179970245456
 20
49.77485502201904
 30
0.0
 11
16.76179970245456
 21
49.74761511499742
 31
0.0
  0
LINE
  5
2F74
330
2E4B
100
AcDbEntity
  8
V3 Burner Box
100
AcDbLine
 10
16.77176010608394
 20
48.0044778629004
 30
0.0
 11
16.76179970245456
 21
48.0044778629004
 31
0.0
  0
LINE
  5
2F75
330
2E4B
100
AcDbEntity
  8
V3 Burner Box
100
AcDbLine
 10
16.77176010608394
 20
47.92161104460324
 30
0.0
 11
16.76179970245456
 21
47.92161104460324
 31
0.0
  0
LINE
  5
2F76
330
2E4B
100
AcDbEntity
  8
V3 Burner Box
100
AcDbLine
 10
16.76179970245456
 20
47.92161104460324
 30
0.0
 11
16.76179970245456
 21
48.0044778629004
 31
0.0
  0
LINE
  5
2F77
330
2E4B
100
AcDbEntity
  8
V3 Burner Box
100
AcDbLine
 10
16.77176010608394
 20
47.81320597345689
 30
0.0
 11
16.76179970245456
 21
47.81320597345689
 31
0.0
  0
LINE
  5
2F78
330
2E4B
100
AcDbEntity
  8
V3 Burner Box
100
AcDbLine
 10
16.76179970245456
 20
47.81320597345689
 30
0.0
 11
16.76179970245456
 21
47.92161104460324
 31
0.0
  0
LINE
  5
2F79
330
2E4B
100
AcDbEntity
  8
V3 Burner Box
100
AcDbLine
 10
16.76179970245456
 20
48.031717769922
 30
0.0
 11
16.77176010608394
 21
48.031717769922
 31
0.0
  0
LINE
  5
2F7A
330
2E4B
100
AcDbEntity
  8
V3 Burner Box
100
AcDbLine
 10
16.76179970245456
 20
48.031717769922
 30
0.0
 11
16.76179970245456
 21
48.03794820837881
 31
0.0
  0
LINE
  5
2F7B
330
2E4B
100
AcDbEntity
  8
V3 Burner Box
100
AcDbLine
 10
16.77176010608394
 20
48.03794820837881
 30
0.0
 11
16.76179970245456
 21
48.03794820837881
 31
0.0
  0
LINE
  5
2F7C
330
2E4B
100
AcDbEntity
  8
V3 Burner Box
100
AcDbLine
 10
16.76179970245456
 20
48.031717769922
 30
0.0
 11
16.76179970245456
 21
48.0044778629004
 31
0.0
  0
ARC
  5
2F7D
330
2E4B
100
AcDbEntity
  8
V3 Burner Box
100
AcDbCircle
 10
18.67078384939549
 20
41.65282298746297
 30
0.0
 40
0.1294901960784322
100
AcDbArc
 50
180.0
 51
270.0
  0
LINE
  5
2F7E
330
2E4B
100
AcDbEntity
  8
V3 Burner Box
100
AcDbLine
 10
18.54129374260717
 20
46.12521514323178
 30
0.0
 11
18.54129374260717
 21
41.65282298855688
 31
0.0
  0
ARC
  5
2F7F
330
2E4B
100
AcDbEntity
  8
V3 Burner Box
100
AcDbCircle
 10
18.67078384939549
 20
46.12521514432571
 30
0.0
 40
0.1294901960784322
100
AcDbArc
 50
90.0
 51
180.0
  0
LINE
  5
2F80
330
2E4B
100
AcDbEntity
  8
V3 Burner Box
100
AcDbLine
 10
25.63337197724232
 20
46.25470535746744
 30
0.0
 11
18.67078395684281
 21
46.25470535746744
 31
0.0
  0
ARC
  5
2F81
330
2E4B
100
AcDbEntity
  8
V3 Burner Box
100
AcDbCircle
 10
25.63337208468963
 20
46.12521514432571
 30
0.0
 40
0.1294901960784322
100
AcDbArc
 50
0.0
 51
90.0
  0
LINE
  5
2F82
330
2E4B
100
AcDbEntity
  8
V3 Burner Box
100
AcDbLine
 10
25.76286219147796
 20
41.64784264065239
 30
0.0
 11
25.76286219147796
 21
46.12521514323178
 31
0.0
  0
ARC
  5
2F83
330
2E4B
100
AcDbEntity
  8
V3 Burner Box
100
AcDbCircle
 10
25.63835247684648
 20
41.6478425953061
 30
0.0
 40
0.1245098039215713
100
AcDbArc
 50
270.0
 51
0.0
  0
LINE
  5
2F84
330
2E4B
100
AcDbEntity
  8
V3 Burner Box
100
AcDbLine
 10
18.67078395684281
 20
41.52333277432123
 30
0.0
 11
25.63835247123663
 21
41.52333277432123
 31
0.0
  0
LINE
  5
2F85
330
2E4B
100
AcDbEntity
  8
V3 Burner Box
100
AcDbLine
 10
27.63075810086216
 20
46.99180342137582
 30
0.0
 11
27.63075810086216
 21
47.52096995153613
 31
0.0
  0
LINE
  5
2F86
330
2E4B
100
AcDbEntity
  8
V3 Burner Box
100
AcDbLine
 10
27.63075810086216
 20
46.46263659903581
 30
0.0
 11
27.63075810086216
 21
46.99180342137582
 31
0.0
  0
LINE
  5
2F87
330
2E4B
100
AcDbEntity
  8
V3 Burner Box
100
AcDbLine
 10
31.81428773963873
 20
46.99180342137582
 30
0.0
 11
31.81428773963873
 21
47.52096995153613
 31
0.0
  0
LINE
  5
2F88
330
2E4B
100
AcDbEntity
  8
V3 Burner Box
100
AcDbLine
 10
31.81428773963873
 20
46.46263659903581
 30
0.0
 11
31.81428773963873
 21
46.99180342137582
 31
0.0
  0
LINE
  5
2F89
330
2E4B
100
AcDbEntity
  8
V3 Burner Box
100
AcDbLine
 10
16.55960380095783
 20
42.36254250620861
 30
0.0
 11
16.55960380095783
 21
43.5279269329216
 31
0.0
  0
LINE
  5
2F8A
330
2E4B
100
AcDbEntity
  8
V3 Burner Box
100
AcDbLine
 10
16.21167454298526
 20
42.49011646033268
 30
0.0
 11
16.21167454298526
 21
43.40035305184243
 31
0.0
  0
LINE
  5
2F8B
330
2E4B
100
AcDbEntity
  8
V3 Burner Box
100
AcDbLine
 10
16.20095914718872
 20
42.49201913409139
 30
0.0
 11
16.20095914718872
 21
43.39845045112862
 31
0.0
  0
LINE
  5
2F8C
330
2E4B
100
AcDbEntity
  8
V3 Burner Box
100
AcDbLine
 10
15.95746599225158
 20
49.66871083685932
 30
0.0
 11
15.95746599225158
 21
50.07336793895799
 31
0.0
  0
LINE
  5
2F8D
330
2E4B
100
AcDbEntity
  8
V3 Burner Box
100
AcDbLine
 10
15.95746599225158
 20
49.26405431911992
 30
0.0
 11
15.95746599225158
 21
49.66871083685932
 31
0.0
  0
LINE
  5
2F8E
330
2E4B
100
AcDbEntity
  8
V3 Burner Box
100
AcDbLine
 10
27.72663100326483
 20
44.92768851007667
 30
0.0
 11
27.72663100326483
 21
40.96329848874783
 31
0.0
  0
LINE
  5
2F8F
330
2E4B
100
AcDbEntity
  8
V3 Burner Box
100
AcDbLine
 10
16.92714883065412
 20
41.73748963338254
 30
0.0
 11
16.92714883065412
 21
37.31197141867995
 31
0.0
  0
LINE
  5
2F90
330
2E4B
100
AcDbEntity
  8
V3 Burner Box
100
AcDbLine
 10
27.377007103431
 20
37.31197141867995
 30
0.0
 11
27.377007103431
 21
41.73748963338254
 31
0.0
  0
LINE
  5
2F91
330
2E4B
100
AcDbEntity
  8
V3 Burner Box
100
AcDbLine
 10
27.377007103431
 20
46.24972500956292
 30
0.0
 11
27.377007103431
 21
50.46606671310875
 31
0.0
  0
LINE
  5
2F92
330
2E4B
100
AcDbEntity
  8
V3 Burner Box
100
AcDbLine
 10
16.92714883065412
 20
50.46606671310875
 30
0.0
 11
16.92714883065412
 21
46.24972500956292
 31
0.0
  0
ENDBLK
  5
2F93
330
2E4B
100
AcDbEntity
  8
0
100
AcDbBlockEnd
  0
BLOCK
  5
2FAD
330
2F96
100
AcDbEntity
  8
0
100
AcDbBlockBegin
  2
4 in - 20 ft Assy
 70
     0
 10
0.0
 20
0.0
 30
0.0
  3
4 in - 20 ft Assy
  1

  0
LINE
  5
3049
330
2F96
100
AcDbEntity
  8
Center Lines
100
AcDbLine
 10
10.32233370260738
 20
40.00676650569547
 30
0.0
 11
131.8392114031925
 21
40.00676650569551
 31
0.0
  0
LINE
  5
304A
330
2F96
100
AcDbEntity
  8
COMBUSTION Radiant Tubes
100
AcDbLine
 10
10.32233370260738
 20
38.01676650569551
 30
0.0
 11
126.3223337026073
 21
38.0167665056955
 31
0.0
  0
INSERT
  5
304B
330
2F96
100
AcDbEntity
  8
0
100
AcDbBlockReference
  2
layers
 10
0.8387486649539821
 20
-3.611935436597064
 30
0.0
  0
LINE
  5
304C
330
2F96
100
AcDbEntity
  8
COMBUSTION Reflector
100
AcDbLine
 10
10.32233370260738
 20
33.3817665056955
 30
0.0
 11
130.3223337026073
 21
33.38176650569551
 31
0.0
  0
LINE
  5
304D
330
2F96
100
AcDbEntity
  8
COMBUSTION Reflector
100
AcDbLine
 10
10.32233370260739
 20
38.7567665056955
 30
0.0
 11
130.3223337026073
 21
38.75676650569551
 31
0.0
  0
LINE
  5
304E
330
2F96
100
AcDbEntity
  8
COMBUSTION Reflector
100
AcDbLine
 10
10.32233370260739
 20
46.63176650569549
 30
0.0
 11
130.3223337026073
 21
46.63176650569549
 31
0.0
  0
LINE
  5
304F
330
2F96
100
AcDbEntity
  8
COMBUSTION Reflector
100
AcDbLine
 10
130.3223337026073
 20
33.38176650569551
 30
0.0
 11
130.3223337026073
 21
46.63176650569549
 31
0.0
  0
LINE
  5
3050
330
2F96
100
AcDbEntity
  8
COMBUSTION Reflector
100
AcDbLine
 10
10.32233370260739
 20
41.25676650569547
 30
0.0
 11
130.3223337026073
 21
41.25676650569551
 31
0.0
  0
LINE
  5
3051
330
2F96
100
AcDbEntity
  8
COMBUSTION Radiant Tubes
100
AcDbLine
 10
126.4073337026073
 20
38.10176650569551
 30
0.0
 11
130.3223337026073
 21
38.10176650569551
 31
0.0
  0
LINE
  5
3052
330
2F96
100
AcDbEntity
  8
COMBUSTION Radiant Tubes
100
AcDbLine
 10
126.4073337026073
 20
41.91176650569551
 30
0.0
 11
130.3223337026073
 21
41.91176650569551
 31
0.0
  0
LINE
  5
3053
330
2F96
100
AcDbEntity
  8
COMBUSTION Radiant Tubes
100
AcDbLine
 10
10.32233370260738
 20
41.99676650569549
 30
0.0
 11
126.3223337026073
 21
41.99676650569549
 31
0.0
  0
LINE
  5
3054
330
2F96
100
AcDbEntity
  8
COMBUSTION Radiant Tubes
100
AcDbLine
 10
126.3223337026073
 20
41.99676650569549
 30
0.0
 11
126.3223337026073
 21
38.0167665056955
 31
0.0
  0
LINE
  5
3055
330
2F96
100
AcDbEntity
  8
COMBUSTION Radiant Tubes
100
AcDbLine
 10
126.4073337026073
 20
41.91176650569551
 30
0.0
 11
126.3223337026073
 21
41.99676650569549
 31
0.0
  0
LINE
  5
3056
330
2F96
100
AcDbEntity
  8
COMBUSTION Radiant Tubes
100
AcDbLine
 10
126.4073337026073
 20
41.91176650569551
 30
0.0
 11
126.4073337026073
 21
38.10176650569551
 31
0.0
  0
LINE
  5
3057
330
2F96
100
AcDbEntity
  8
COMBUSTION Radiant Tubes
100
AcDbLine
 10
126.4073337026073
 20
38.10176650569551
 30
0.0
 11
126.3223337026073
 21
38.0167665056955
 31
0.0
  0
LINE
  5
3058
330
2F96
100
AcDbEntity
  8
COMBUSTION Radiant Tubes
100
AcDbLine
 10
130.3223337026073
 20
38.10176650569551
 30
0.0
 11
130.3223337026073
 21
41.91176650569551
 31
0.0
  0
LINE
  5
3059
330
2F96
100
AcDbEntity
  8
COMBUSTION Reflector
100
AcDbLine
 10
10.32233370260739
 20
33.38176650569558
 30
0.0
 11
10.32233370260739
 21
46.63176650569556
 31
0.0
  0
LINE
  5
305A
330
2F96
100
AcDbEntity
  8
COMBUSTION Radiant Tubes
100
AcDbLine
 10
10.32233370260738
 20
38.01676650569551
 30
0.0
 11
10.32233370260739
 21
41.99676650569549
 31
0.0
  0
INSERT
  5
305B
330
2F96
100
AcDbEntity
  8
0
100
AcDbBlockReference
  2
4 in - 10 ft Tube-RR
 10
238.2514866427249
 20
-0.0000000000000639
 30
0.0
 41
-1.0
  0
INSERT
  5
305C
330
2F96
100
AcDbEntity
  8
0
100
AcDbBlockReference
  2
4 in BURNER BOX
 10
-28.3405309384592
 20
0.0000000000000142
 30
0.0
  0
ENDBLK
  5
2FAE
330
2F96
100
AcDbEntity
  8
0
100
AcDbBlockEnd
  0
BLOCK
  5
2FF9
330
2FF6
100
AcDbEntity
  8
0
100
AcDbBlockBegin
  2
BURNER BOX
 70
     0
 10
0.0
 20
0.0
 30
0.0
  3
BURNER BOX
  1

  0
LINE
  5
2FFA
330
2FF6
100
AcDbEntity
  8
Center Lines
100
AcDbLine
 10
13.87538097441444
 20
40.00676650569547
 30
0.0
 11
44.12351024700193
 21
40.00676650569547
 31
0.0
  0
LINE
  5
2FFB
330
2FF6
100
AcDbEntity
  8
BURNER Radiant Tubes
  6
Continuous
100
AcDbLine
 10
26.66286464106657
 20
38.01676650569551
 30
0.0
 11
31.16286464106658
 21
38.0167665056955
 31
0.0
  0
INSERT
  5
2FFC
330
2FF6
100
AcDbEntity
  8
0
100
AcDbBlockReference
  2
layers
 10
0.8387486649539821
 20
-3.611935436597064
 30
0.0
  0
LINE
  5
2FFD
330
2FF6
100
AcDbEntity
  8
BURNER Radiant Tubes
100
AcDbLine
 10
38.74786464106659
 20
38.1017665056955
 30
0.0
 11
42.66286464106658
 21
38.1017665056955
 31
0.0
  0
LINE
  5
2FFE
330
2FF6
100
AcDbEntity
  8
BURNER Radiant Tubes
100
AcDbLine
 10
38.74786464106661
 20
41.91176650569548
 30
0.0
 11
42.66286464106658
 21
41.91176650569548
 31
0.0
  0
LINE
  5
2FFF
330
2FF6
100
AcDbEntity
  8
BURNER Radiant Tubes
  6
Continuous
100
AcDbLine
 10
26.66286464106657
 20
41.99676650569549
 30
0.0
 11
38.66286464106659
 21
41.99676650569549
 31
0.0
  0
LINE
  5
3000
330
2FF6
100
AcDbEntity
  8
BURNER Radiant Tubes
  6
Continuous
100
AcDbLine
 10
38.66286464106659
 20
41.99676650569549
 30
0.0
 11
38.66286464106659
 21
38.01676650569549
 31
0.0
  0
LINE
  5
3001
330
2FF6
100
AcDbEntity
  8
BURNER Radiant Tubes
100
AcDbLine
 10
38.74786464106661
 20
41.91176650569548
 30
0.0
 11
38.66286464106659
 21
41.99676650569549
 31
0.0
  0
LINE
  5
3002
330
2FF6
100
AcDbEntity
  8
BURNER Radiant Tubes
100
AcDbLine
 10
38.74786464106661
 20
41.91176650569548
 30
0.0
 11
38.74786464106659
 21
38.1017665056955
 31
0.0
  0
LINE
  5
3003
330
2FF6
100
AcDbEntity
  8
BURNER Radiant Tubes
100
AcDbLine
 10
38.74786464106659
 20
38.1017665056955
 30
0.0
 11
38.66286464106659
 21
38.01676650569549
 31
0.0
  0
LINE
  5
3004
330
2FF6
100
AcDbEntity
  8
BURNER Radiant Tubes
100
AcDbLine
 10
42.66286464106658
 20
38.1017665056955
 30
0.0
 11
42.66286464106658
 21
41.91176650569548
 31
0.0
  0
LINE
  5
3005
330
2FF6
100
AcDbEntity
  8
Burners
100
AcDbLine
 10
26.66286464106657
 20
38.01676650569551
 30
0.0
 11
26.66286464106662
 21
52.26676650569549
 31
0.0
  0
LINE
  5
3006
330
2FF6
100
AcDbEntity
  8
Burners
100
AcDbLine
 10
31.16286464106657
 20
35.2567665056955
 30
0.0
 11
31.16286464106658
 21
40.0067665056955
 31
0.0
  0
LINE
  5
3007
330
2FF6
100
AcDbEntity
  8
Burners
100
AcDbLine
 10
35.16286464106656
 20
35.2567665056955
 30
0.0
 11
35.16286464106658
 21
40.0067665056955
 31
0.0
  0
LINE
  5
3008
330
2FF6
100
AcDbEntity
  8
Burners
100
AcDbLine
 10
31.16286464106658
 20
40.0067665056955
 30
0.0
 11
35.16286464106658
 21
40.0067665056955
 31
0.0
  0
LINE
  5
3009
330
2FF6
100
AcDbEntity
  8
BURNER Radiant Tubes
  6
Continuous
100
AcDbLine
 10
35.16286464106658
 20
38.01676650569549
 30
0.0
 11
38.66286464106659
 21
38.01676650569549
 31
0.0
  0
LINE
  5
300A
330
2FF6
100
AcDbEntity
  8
Burners
100
AcDbLine
 10
26.66286464106657
 20
36.26676650569551
 30
0.0
 11
31.16286464106657
 21
36.2667665056955
 31
0.0
  0
LINE
  5
300B
330
2FF6
100
AcDbEntity
  8
Burners
100
AcDbLine
 10
31.16286464106658
 20
35.2567665056955
 30
0.0
 11
35.16286464106658
 21
35.2567665056955
 31
0.0
  0
LINE
  5
300C
330
2FF6
100
AcDbEntity
  8
Burners
100
AcDbLine
 10
26.66286464106657
 20
35.51676650569551
 30
0.0
 11
31.16286464106657
 21
35.5167665056955
 31
0.0
  0
LINE
  5
300D
330
2FF6
100
AcDbEntity
  8
Burners
100
AcDbLine
 10
26.66286464106657
 20
34.26676650569551
 30
0.0
 11
15.41286464106655
 21
34.26676650569549
 31
0.0
  0
LINE
  5
300E
330
2FF6
100
AcDbEntity
  8
Burners
100
AcDbLine
 10
26.66286464106657
 20
34.26676650569551
 30
0.0
 11
26.66286464106657
 21
38.01676650569551
 31
0.0
  0
LINE
  5
300F
330
2FF6
100
AcDbEntity
  8
Burners
100
AcDbLine
 10
15.41286464106655
 20
34.26676650569553
 30
0.0
 11
15.41286464106656
 21
38.26676650569549
 31
0.0
  0
LINE
  5
3010
330
2FF6
100
AcDbEntity
  8
Burners
100
AcDbLine
 10
26.66286464106653
 20
52.26676650569551
 30
0.0
 11
15.41286464106653
 21
52.26676650569549
 31
0.0
  0
LINE
  5
3011
330
2FF6
100
AcDbEntity
  8
Burners
100
AcDbLine
 10
15.41286464106658
 20
48.26676650569549
 30
0.0
 11
13.41286464106658
 21
48.26676650569549
 31
0.0
  0
LINE
  5
3012
330
2FF6
100
AcDbEntity
  8
Burners
100
AcDbLine
 10
15.41286464106657
 20
44.26676650569549
 30
0.0
 11
13.41286464106657
 21
44.26676650569549
 31
0.0
  0
LINE
  5
3013
330
2FF6
100
AcDbEntity
  8
Burners
100
AcDbLine
 10
15.41286464106656
 20
38.26676650569549
 30
0.0
 11
13.41286464106656
 21
38.26676650569549
 31
0.0
  0
LINE
  5
3014
330
2FF6
100
AcDbEntity
  8
Burners
100
AcDbLine
 10
15.41286464106656
 20
39.26676650569549
 30
0.0
 11
13.41286464106656
 21
39.26676650569549
 31
0.0
  0
LINE
  5
3015
330
2FF6
100
AcDbEntity
  8
Burners
100
AcDbLine
 10
13.41286464106656
 20
38.26676650569549
 30
0.0
 11
13.41286464106656
 21
39.26676650569549
 31
0.0
  0
LINE
  5
3016
330
2FF6
100
AcDbEntity
  8
Burners
100
AcDbLine
 10
13.41286464106658
 20
44.26676650569549
 30
0.0
 11
13.41286464106658
 21
48.26676650569551
 31
0.0
  0
LINE
  5
3017
330
2FF6
100
AcDbEntity
  8
Burners
100
AcDbLine
 10
15.41286464106656
 20
39.26676650569549
 30
0.0
 11
15.41286464106658
 21
44.26676650569549
 31
0.0
  0
LINE
  5
3018
330
2FF6
100
AcDbEntity
  8
Burners
100
AcDbLine
 10
15.41286464106659
 20
48.26676650569551
 30
0.0
 11
15.41286464106659
 21
52.26676650569547
 31
0.0
  0
LINE
  5
3019
330
2FF6
100
AcDbEntity
  8
Burners
100
AcDbLine
 10
15.41286464106656
 20
39.26676650569549
 30
0.0
 11
15.41286464106656
 21
38.26676650569549
 31
0.0
  0
LINE
  5
301A
330
2FF6
100
AcDbEntity
  8
Burners
100
AcDbLine
 10
15.41286464106659
 20
48.26676650569549
 30
0.0
 11
15.4128646410666
 21
44.26676650569549
 31
0.0
  0
ENDBLK
  5
301B
330
2FF6
100
AcDbEntity
  8
0
100
AcDbBlockEnd
  0
BLOCK
  5
301F
330
301C
100
AcDbEntity
  8
0
100
AcDbBlockBegin
  2
4 in BURNER BOX
 70
     0
 10
0.0
 20
0.0
 30
0.0
  3
4 in BURNER BOX
  1

  0
LINE
  5
3020
330
301C
100
AcDbEntity
  8
Burner
  6
HIDDEN
 62
   253
100
AcDbLine
 10
26.66286464106657
 20
38.01676650569551
 30
0.0
 11
27.66286464106658
 21
38.01676650569551
 31
0.0
  0
INSERT
  5
3021
330
301C
100
AcDbEntity
  8
0
100
AcDbBlockReference
  2
layers
 10
0.8387486649539821
 20
-3.611935436597064
 30
0.0
  0
LINE
  5
3022
330
301C
100
AcDbEntity
  8
BURNER Radiant Tubes
100
AcDbLine
 10
38.74786464106659
 20
38.1017665056955
 30
0.0
 11
42.66286464106658
 21
38.1017665056955
 31
0.0
  0
LINE
  5
3023
330
301C
100
AcDbEntity
  8
BURNER Radiant Tubes
100
AcDbLine
 10
38.74786464106661
 20
41.91176650569548
 30
0.0
 11
42.66286464106658
 21
41.91176650569548
 31
0.0
  0
LINE
  5
3024
330
301C
100
AcDbEntity
  8
Burner
  6
HIDDEN
 62
   253
100
AcDbLine
 10
26.66286464106657
 20
41.99676650569549
 30
0.0
 11
27.66286464106658
 21
41.99676650569549
 31
0.0
  0
LINE
  5
3025
330
301C
100
AcDbEntity
  8
BURNER Radiant Tubes
  6
Continuous
100
AcDbLine
 10
38.66286464106659
 20
41.99676650569549
 30
0.0
 11
38.66286464106659
 21
38.01676650569549
 31
0.0
  0
LINE
  5
3026
330
301C
100
AcDbEntity
  8
BURNER Radiant Tubes
100
AcDbLine
 10
38.74786464106661
 20
41.91176650569548
 30
0.0
 11
38.66286464106659
 21
41.99676650569549
 31
0.0
  0
LINE
  5
3027
330
301C
100
AcDbEntity
  8
BURNER Radiant Tubes
100
AcDbLine
 10
38.74786464106661
 20
41.91176650569548
 30
0.0
 11
38.74786464106659
 21
38.1017665056955
 31
0.0
  0
LINE
  5
3028
330
301C
100
AcDbEntity
  8
BURNER Radiant Tubes
100
AcDbLine
 10
38.74786464106659
 20
38.1017665056955
 30
0.0
 11
38.66286464106659
 21
38.01676650569549
 31
0.0
  0
LINE
  5
3029
330
301C
100
AcDbEntity
  8
BURNER Radiant Tubes
100
AcDbLine
 10
42.66286464106658
 20
38.1017665056955
 30
0.0
 11
42.66286464106658
 21
41.91176650569548
 31
0.0
  0
LINE
  5
302A
330
301C
100
AcDbEntity
  8
Burner
  6
HIDDEN
 62
   253
100
AcDbLine
 10
26.66286464106657
 20
35.00676650569552
 30
0.0
 11
26.66286464106662
 21
53.00676650569546
 31
0.0
  0
LINE
  5
302B
330
301C
100
AcDbEntity
  8
Burner
100
AcDbLine
 10
31.16286464106657
 20
35.2567665056955
 30
0.0
 11
31.16286464106658
 21
40.0067665056955
 31
0.0
  0
LINE
  5
302C
330
301C
100
AcDbEntity
  8
Burner
100
AcDbLine
 10
35.16286464106656
 20
35.2567665056955
 30
0.0
 11
35.16286464106658
 21
40.0067665056955
 31
0.0
  0
LINE
  5
302D
330
301C
100
AcDbEntity
  8
Burner
100
AcDbLine
 10
31.16286464106658
 20
40.0067665056955
 30
0.0
 11
35.16286464106658
 21
40.0067665056955
 31
0.0
  0
LINE
  5
302E
330
301C
100
AcDbEntity
  8
BURNER Radiant Tubes
  6
Continuous
100
AcDbLine
 10
35.16286464106658
 20
38.01676650569549
 30
0.0
 11
38.66286464106659
 21
38.01676650569549
 31
0.0
  0
LINE
  5
302F
330
301C
100
AcDbEntity
  8
Burner
  6
HIDDEN
 62
   253
100
AcDbLine
 10
26.66286464106657
 20
36.26676650569551
 30
0.0
 11
27.66286464106658
 21
36.26676650569552
 31
0.0
  0
LINE
  5
3030
330
301C
100
AcDbEntity
  8
Burner
100
AcDbLine
 10
31.16286464106658
 20
35.2567665056955
 30
0.0
 11
35.16286464106658
 21
35.2567665056955
 31
0.0
  0
LINE
  5
3031
330
301C
100
AcDbEntity
  8
Burner
  6
HIDDEN
 62
   253
100
AcDbLine
 10
26.66286464106657
 20
35.51676650569551
 30
0.0
 11
27.66286464106657
 21
35.51676650569551
 31
0.0
  0
LINE
  5
3032
330
301C
100
AcDbEntity
  8
Burner
100
AcDbLine
 10
27.66286464106658
 20
35.00676650569552
 30
0.0
 11
15.66286464106655
 21
35.00676650569551
 31
0.0
  0
LINE
  5
3033
330
301C
100
AcDbEntity
  8
Burner
100
AcDbLine
 10
27.66286464106662
 20
53.00676650569549
 30
0.0
 11
15.66286464106662
 21
53.00676650569546
 31
0.0
  0
LINE
  5
3034
330
301C
100
AcDbEntity
  8
Burner
  6
HIDDEN
 62
   253
100
AcDbLine
 10
16.6628646410666
 20
49.50676650569548
 30
0.0
 11
15.6628646410666
 21
49.50676650569549
 31
0.0
  0
LINE
  5
3035
330
301C
100
AcDbEntity
  8
Burner
  6
HIDDEN
 62
   253
100
AcDbLine
 10
16.6628646410666
 20
45.50676650569546
 30
0.0
 11
15.66286464106659
 21
45.50676650569546
 31
0.0
  0
LINE
  5
3036
330
301C
100
AcDbEntity
  8
Burner
  6
HIDDEN
 62
   253
100
AcDbLine
 10
16.66286464106656
 20
39.5067665056955
 30
0.0
 11
15.66286464106657
 21
39.5067665056955
 31
0.0
  0
LINE
  5
3037
330
301C
100
AcDbEntity
  8
Burner
  6
HIDDEN
 62
   253
100
AcDbLine
 10
16.66286464106657
 20
40.5067665056955
 30
0.0
 11
15.66286464106657
 21
40.50676650569547
 31
0.0
  0
LINE
  5
3038
330
301C
100
AcDbEntity
  8
Burner
100
AcDbLine
 10
14.66286464106656
 20
39.5067665056955
 30
0.0
 11
14.66286464106656
 21
40.5067665056955
 31
0.0
  0
LINE
  5
3039
330
301C
100
AcDbEntity
  8
Burner
100
AcDbLine
 10
14.6628646410666
 20
45.50676650569546
 30
0.0
 11
14.66286464106661
 21
49.50676650569549
 31
0.0
  0
LINE
  5
303A
330
301C
100
AcDbEntity
  8
Burner
  6
HIDDEN
 62
   253
100
AcDbLine
 10
16.66286464106652
 20
35.00676650569551
 30
0.0
 11
16.66286464106662
 21
53.00676650569553
 31
0.0
  0
LINE
  5
303B
330
301C
100
AcDbEntity
  8
Center Lines
100
AcDbLine
 10
46.07351793846427
 20
40.00676650569547
 30
0.0
 11
12.16283504057107
 21
40.00676650569547
 31
0.0
  0
LINE
  5
303C
330
301C
100
AcDbEntity
  8
Burner
100
AcDbLine
 10
15.66286464106655
 20
35.00676650569551
 30
0.0
 11
15.66286464106662
 21
53.00676650569553
 31
0.0
  0
LINE
  5
303D
330
301C
100
AcDbEntity
  8
Burner
100
AcDbLine
 10
27.66286464106657
 20
35.00676650569552
 30
0.0
 11
27.66286464106662
 21
53.00676650569545
 31
0.0
  0
LINE
  5
303E
330
301C
100
AcDbEntity
  8
Burner
100
AcDbLine
 10
15.66286464106657
 20
40.5067665056955
 30
0.0
 11
14.66286464106657
 21
40.5067665056955
 31
0.0
  0
LINE
  5
303F
330
301C
100
AcDbEntity
  8
Burner
100
AcDbLine
 10
15.66286464106657
 20
39.5067665056955
 30
0.0
 11
14.66286464106656
 21
39.5067665056955
 31
0.0
  0
LINE
  5
3040
330
301C
100
AcDbEntity
  8
Burner
100
AcDbLine
 10
15.66286464106659
 20
45.50676650569546
 30
0.0
 11
14.6628646410666
 21
45.50676650569546
 31
0.0
  0
LINE
  5
3041
330
301C
100
AcDbEntity
  8
Burner
100
AcDbLine
 10
15.6628646410666
 20
49.50676650569548
 30
0.0
 11
14.6628646410666
 21
49.50676650569548
 31
0.0
  0
LINE
  5
3042
330
301C
100
AcDbEntity
  8
BURNER Radiant Tubes
  6
Continuous
100
AcDbLine
 10
27.66286464106659
 20
41.99676650569549
 30
0.0
 11
38.66286464106659
 21
41.99676650569549
 31
0.0
  0
LINE
  5
3043
330
301C
100
AcDbEntity
  8
BURNER Radiant Tubes
  6
Continuous
100
AcDbLine
 10
27.66286464106658
 20
38.01676650569551
 30
0.0
 11
31.16286464106658
 21
38.0167665056955
 31
0.0
  0
LINE
  5
3044
330
301C
100
AcDbEntity
  8
Burner
100
AcDbLine
 10
27.66286464106658
 20
36.26676650569552
 30
0.0
 11
31.16286464106657
 21
36.2667665056955
 31
0.0
  0
LINE
  5
3045
330
301C
100
AcDbEntity
  8
Burner
100
AcDbLine
 10
27.66286464106657
 20
35.51676650569551
 30
0.0
 11
31.16286464106657
 21
35.5167665056955
 31
0.0
  0
ENDBLK
  5
3046
330
301C
100
AcDbEntity
  8
0
100
AcDbBlockEnd
  0
BLOCK
  5
3099
330
3096
100
AcDbEntity
  8
0
100
AcDbBlockBegin
  2
RUP
 70
     0
 10
0.0
 20
0.0
 30
0.0
  3
RUP
  1

  0
LINE
  5
309A
330
3096
100
AcDbEntity
  8
Center Lines
100
AcDbLine
 10
-9.487255569716595
 20
12.24177535581936
 30
0.0
 11
4.434479136532461
 21
12.24177535581937
 31
0.0
  0
INSERT
  5
309B
330
3096
100
AcDbEntity
  8
0
100
AcDbBlockReference
  2
layers
 10
0.8387486649539821
 20
-3.611935436597064
 30
0.0
  0
LINE
  5
309C
330
3096
100
AcDbEntity
  8
RU Reflector
100
AcDbLine
 10
13.68447913653245
 20
10.99177535581937
 30
0.0
 11
-1.565520863467536
 21
10.99177535581937
 31
0.0
  0
LINE
  5
309D
330
3096
100
AcDbEntity
  8
RU Reflector
100
AcDbLine
 10
11.18447913653245
 20
13.49177535581937
 30
0.0
 11
-1.565520863467536
 21
13.49177535581937
 31
0.0
  0
LINE
  5
309E
330
3096
100
AcDbEntity
  8
TF1B Radiant Tubes
100
AcDbLine
 10
4.434479136532459
 20
14.23177535581938
 30
0.0
 11
-1.56552086346754
 21
14.23177535581938
 31
0.0
  0
LINE
  5
309F
330
3096
100
AcDbEntity
  8
TF1B Radiant Tubes
100
AcDbLine
 10
-1.650520863467541
 20
14.14677535581938
 30
0.0
 11
-5.565520863467539
 21
14.14677535581938
 31
0.0
  0
LINE
  5
30A0
330
3096
100
AcDbEntity
  8
TF1B Radiant Tubes
100
AcDbLine
 10
-1.650520863467548
 20
10.33677535581937
 30
0.0
 11
-5.565520863467539
 21
10.33677535581937
 31
0.0
  0
LINE
  5
30A1
330
3096
100
AcDbEntity
  8
TF1B Radiant Tubes
100
AcDbLine
 10
4.434479136532459
 20
10.25177535581937
 30
0.0
 11
-1.565520863467547
 21
10.25177535581937
 31
0.0
  0
LINE
  5
30A2
330
3096
100
AcDbEntity
  8
TF1B Radiant Tubes
100
AcDbLine
 10
-1.565520863467547
 20
10.25177535581937
 30
0.0
 11
-1.56552086346754
 21
14.23177535581938
 31
0.0
  0
LINE
  5
30A3
330
3096
100
AcDbEntity
  8
TF1B Radiant Tubes
100
AcDbLine
 10
-1.650520863467548
 20
10.33677535581937
 30
0.0
 11
-1.650520863467541
 21
14.14677535581938
 31
0.0
  0
LINE
  5
30A4
330
3096
100
AcDbEntity
  8
TF1B Radiant Tubes
100
AcDbLine
 10
-1.650520863467548
 20
10.33677535581937
 30
0.0
 11
-1.565520863467547
 21
10.25177535581937
 31
0.0
  0
LINE
  5
30A5
330
3096
100
AcDbEntity
  8
TF1B Radiant Tubes
100
AcDbLine
 10
-1.650520863467541
 20
14.14677535581938
 30
0.0
 11
-1.56552086346754
 21
14.23177535581938
 31
0.0
  0
LINE
  5
30A6
330
3096
100
AcDbEntity
  8
TF1B Radiant Tubes
100
AcDbLine
 10
-5.565520863467539
 20
14.14677535581938
 30
0.0
 11
-5.565520863467539
 21
10.33677535581937
 31
0.0
  0
LINE
  5
30A7
330
3096
100
AcDbEntity
  8
RU Reflector
100
AcDbLine
 10
5.809479136532463
 20
18.86677535581936
 30
0.0
 11
-1.565520863467536
 21
18.86677535581936
 31
0.0
  0
LINE
  5
30A8
330
3096
100
AcDbEntity
  8
RU Reflector
100
AcDbLine
 10
19.05947913653246
 20
5.616775355819363
 30
0.0
 11
-1.565520863467536
 21
5.616775355819363
 31
0.0
  0
LINE
  5
30A9
330
3096
100
AcDbEntity
  8
RU Reflector
100
AcDbLine
 10
-1.565520863467536
 20
18.86677535581936
 30
0.0
 11
-1.565520863467536
 21
5.616775355819362
 31
0.0
  0
LINE
  5
30AA
330
3096
100
AcDbEntity
  8
Center Lines
100
AcDbLine
 10
-3.402577322411346
 20
28.24177535581938
 30
0.0
 11
4.434479136532459
 21
28.24177535581938
 31
0.0
  0
ARC
  5
30AB
330
3096
100
AcDbEntity
  8
Center Lines
100
AcDbCircle
 10
4.434479136532459
 20
20.24177535581936
 30
0.0
 40
8.0
100
AcDbArc
 50
270.0
 51
90.0
  0
ARC
  5
30AC
330
3096
100
AcDbEntity
  8
TF1B Radiant Tubes
100
AcDbCircle
 10
4.434479136532459
 20
20.24177535581936
 30
0.0
 40
9.989999999999991
100
AcDbArc
 50
270.0
 51
90.0
  0
ARC
  5
30AD
330
3096
100
AcDbEntity
  8
TF1B Radiant Tubes
100
AcDbCircle
 10
4.434479136532459
 20
20.24177535581936
 30
0.0
 40
6.00999999999999
100
AcDbArc
 50
270.0
 51
90.0
  0
LINE
  5
30AE
330
3096
100
AcDbEntity
  8
TF1B Radiant Tubes
100
AcDbLine
 10
4.434479136532459
 20
26.25177535581936
 30
0.0
 11
-1.56552086346754
 21
26.25177535581935
 31
0.0
  0
LINE
  5
30AF
330
3096
100
AcDbEntity
  8
TF1B Radiant Tubes
100
AcDbLine
 10
4.434479136532459
 20
30.23177535581936
 30
0.0
 11
-1.56552086346754
 21
30.23177535581936
 31
0.0
  0
LINE
  5
30B0
330
3096
100
AcDbEntity
  8
TF1B Radiant Tubes
100
AcDbLine
 10
-1.56552086346754
 20
30.23177535581936
 30
0.0
 11
-1.56552086346754
 21
26.25177535581936
 31
0.0
  0
LINE
  5
30B1
330
3096
100
AcDbEntity
  8
RU Reflector
100
AcDbLine
 10
19.05947913653246
 20
34.86677535581935
 30
0.0
 11
19.05947913653246
 21
5.616775355819362
 31
0.0
  0
LINE
  5
30B2
330
3096
100
AcDbEntity
  8
RU Reflector
100
AcDbLine
 10
5.809479136532463
 20
21.61677535581937
 30
0.0
 11
5.809479136532464
 21
18.86677535581936
 31
0.0
  0
LINE
  5
30B3
330
3096
100
AcDbEntity
  8
RU Reflector
100
AcDbLine
 10
5.809479136532463
 20
21.61677535581937
 30
0.0
 11
-1.565520863467536
 21
21.61677535581937
 31
0.0
  0
LINE
  5
30B4
330
3096
100
AcDbEntity
  8
RU Reflector
100
AcDbLine
 10
-1.565520863467536
 20
21.61677535581937
 30
0.0
 11
-1.565520863467536
 21
34.86677535581935
 31
0.0
  0
LINE
  5
30B5
330
3096
100
AcDbEntity
  8
RU Reflector
100
AcDbLine
 10
19.05947913653246
 20
34.86677535581935
 30
0.0
 11
-1.565520863467536
 21
34.86677535581935
 31
0.0
  0
LINE
  5
30B6
330
3096
100
AcDbEntity
  8
RU Reflector
100
AcDbLine
 10
19.05947913653246
 20
34.86677535581935
 30
0.0
 11
5.809479136532463
 21
21.61677535581937
 31
0.0
  0
LINE
  5
30B7
330
3096
100
AcDbEntity
  8
RU Reflector
100
AcDbLine
 10
19.05947913653246
 20
5.616775355819362
 30
0.0
 11
5.809479136532464
 21
18.86677535581936
 31
0.0
  0
LINE
  5
30B8
330
3096
100
AcDbEntity
  8
RU Reflector
100
AcDbLine
 10
11.18447913653245
 20
13.49177535581937
 30
0.0
 11
11.18447913653245
 21
26.99177535581935
 31
0.0
  0
LINE
  5
30B9
330
3096
100
AcDbEntity
  8
RU Reflector
100
AcDbLine
 10
13.68447913653245
 20
10.99177535581937
 30
0.0
 11
13.68447913653245
 21
29.49177535581935
 31
0.0
  0
LINE
  5
30BA
330
3096
100
AcDbEntity
  8
RU Reflector
100
AcDbLine
 10
13.68447913653245
 20
29.49177535581934
 30
0.0
 11
-1.565520863467536
 21
29.49177535581934
 31
0.0
  0
LINE
  5
30BB
330
3096
100
AcDbEntity
  8
RU Reflector
100
AcDbLine
 10
11.18447913653245
 20
26.99177535581935
 30
0.0
 11
-1.565520863467536
 21
26.99177535581935
 31
0.0
  0
ENDBLK
  5
30BC
330
3096
100
AcDbEntity
  8
0
100
AcDbBlockEnd
  0
BLOCK
  5
30C0
330
30BD
100
AcDbEntity
  8
0
100
AcDbBlockBegin
  2
4 in - 10 ft Tube
 70
     0
 10
0.0
 20
0.0
 30
0.0
  3
4 in - 10 ft Tube
  1

  0
LINE
  5
30C1
330
30BD
100
AcDbEntity
  8
Center Lines
100
AcDbLine
 10
-9.878089500382868
 20
40.00676650569548
 30
0.0
 11
111.6387882002022
 21
40.00676650569551
 31
0.0
  0
LINE
  5
30C2
330
30BD
100
AcDbEntity
  8
Radiant Tubes
100
AcDbLine
 10
-9.878089500382868
 20
38.01676650569551
 30
0.0
 11
106.1219104996171
 21
38.0167665056955
 31
0.0
  0
INSERT
  5
30C3
330
30BD
100
AcDbEntity
  8
0
100
AcDbBlockReference
  2
layers
 10
0.8387486649539821
 20
-3.611935436597064
 30
0.0
  0
LINE
  5
30C4
330
30BD
100
AcDbEntity
  8
Reflector
100
AcDbLine
 10
-9.878089500382868
 20
33.3817665056955
 30
0.0
 11
110.1219104996171
 21
33.38176650569551
 31
0.0
  0
LINE
  5
30C5
330
30BD
100
AcDbEntity
  8
Reflector
100
AcDbLine
 10
-9.878089500382854
 20
38.7567665056955
 30
0.0
 11
110.1219104996171
 21
38.75676650569551
 31
0.0
  0
LINE
  5
30C6
330
30BD
100
AcDbEntity
  8
Reflector
100
AcDbLine
 10
-9.878089500382854
 20
46.6317665056955
 30
0.0
 11
110.1219104996171
 21
46.6317665056955
 31
0.0
  0
LINE
  5
30C7
330
30BD
100
AcDbEntity
  8
Reflector
100
AcDbLine
 10
110.1219104996171
 20
33.38176650569551
 30
0.0
 11
110.1219104996171
 21
46.6317665056955
 31
0.0
  0
LINE
  5
30C8
330
30BD
100
AcDbEntity
  8
Reflector
100
AcDbLine
 10
-9.878089500382854
 20
41.25676650569548
 30
0.0
 11
110.1219104996171
 21
41.25676650569551
 31
0.0
  0
LINE
  5
30C9
330
30BD
100
AcDbEntity
  8
Radiant Tubes
100
AcDbLine
 10
106.2069104996171
 20
38.10176650569551
 30
0.0
 11
110.1219104996171
 21
38.10176650569551
 31
0.0
  0
LINE
  5
30CA
330
30BD
100
AcDbEntity
  8
Radiant Tubes
100
AcDbLine
 10
106.2069104996171
 20
41.91176650569551
 30
0.0
 11
110.1219104996171
 21
41.91176650569551
 31
0.0
  0
LINE
  5
30CB
330
30BD
100
AcDbEntity
  8
Radiant Tubes
100
AcDbLine
 10
-9.878089500382868
 20
41.99676650569549
 30
0.0
 11
106.1219104996171
 21
41.99676650569549
 31
0.0
  0
LINE
  5
30CC
330
30BD
100
AcDbEntity
  8
Radiant Tubes
100
AcDbLine
 10
106.1219104996171
 20
41.99676650569549
 30
0.0
 11
106.1219104996171
 21
38.0167665056955
 31
0.0
  0
LINE
  5
30CD
330
30BD
100
AcDbEntity
  8
Radiant Tubes
100
AcDbLine
 10
106.2069104996171
 20
41.91176650569551
 30
0.0
 11
106.1219104996171
 21
41.99676650569549
 31
0.0
  0
LINE
  5
30CE
330
30BD
100
AcDbEntity
  8
Radiant Tubes
100
AcDbLine
 10
106.2069104996171
 20
41.91176650569551
 30
0.0
 11
106.2069104996171
 21
38.10176650569551
 31
0.0
  0
LINE
  5
30CF
330
30BD
100
AcDbEntity
  8
Radiant Tubes
100
AcDbLine
 10
106.2069104996171
 20
38.10176650569551
 30
0.0
 11
106.1219104996171
 21
38.0167665056955
 31
0.0
  0
LINE
  5
30D0
330
30BD
100
AcDbEntity
  8
Radiant Tubes
100
AcDbLine
 10
110.1219104996171
 20
38.10176650569551
 30
0.0
 11
110.1219104996171
 21
41.91176650569551
 31
0.0
  0
LINE
  5
30D1
330
30BD
100
AcDbEntity
  8
Reflector
100
AcDbLine
 10
-9.878089500382854
 20
33.38176650569558
 30
0.0
 11
-9.878089500382854
 21
46.63176650569556
 31
0.0
  0
LINE
  5
30D2
330
30BD
100
AcDbEntity
  8
Radiant Tubes
100
AcDbLine
 10
-9.878089500382868
 20
38.01676650569551
 30
0.0
 11
-9.878089500382854
 21
41.99676650569549
 31
0.0
  0
ENDBLK
  5
30D3
330
30BD
100
AcDbEntity
  8
0
100
AcDbBlockEnd
  0
BLOCK
  5
30EE
330
30D6
100
AcDbEntity
  8
0
100
AcDbBlockBegin
  2
4 in - 20 ft U-Tube
 70
     0
 10
0.0
 20
0.0
 30
0.0
  3
4 in - 20 ft U-Tube
  1

  0
LINE
  5
312B
330
30D6
100
AcDbEntity
  8
Center Lines
100
AcDbLine
 10
10.32233370260738
 20
40.00676650569549
 30
0.0
 11
131.8392114031925
 21
40.00676650569551
 31
0.0
  0
LINE
  5
312C
330
30D6
100
AcDbEntity
  8
COMBUSTION Radiant Tubes
100
AcDbLine
 10
10.32233370260738
 20
38.01676650569551
 30
0.0
 11
126.3223337026073
 21
38.0167665056955
 31
0.0
  0
INSERT
  5
312D
330
30D6
100
AcDbEntity
  8
0
100
AcDbBlockReference
  2
layers
 10
0.8387486649539823
 20
-3.611935436597065
 30
0.0
  0
LINE
  5
312E
330
30D6
100
AcDbEntity
  8
COMBUSTION Reflector
100
AcDbLine
 10
10.32233370260738
 20
33.3817665056955
 30
0.0
 11
130.3223337026073
 21
33.38176650569551
 31
0.0
  0
LINE
  5
312F
330
30D6
100
AcDbEntity
  8
COMBUSTION Reflector
100
AcDbLine
 10
10.32233370260739
 20
38.7567665056955
 30
0.0
 11
130.3223337026073
 21
38.75676650569551
 31
0.0
  0
LINE
  5
3130
330
30D6
100
AcDbEntity
  8
COMBUSTION Reflector
100
AcDbLine
 10
10.32233370260739
 20
46.63176650569551
 30
0.0
 11
130.3223337026073
 21
46.63176650569551
 31
0.0
  0
LINE
  5
3131
330
30D6
100
AcDbEntity
  8
COMBUSTION Reflector
100
AcDbLine
 10
130.3223337026073
 20
33.38176650569551
 30
0.0
 11
130.3223337026073
 21
46.63176650569551
 31
0.0
  0
LINE
  5
3132
330
30D6
100
AcDbEntity
  8
COMBUSTION Reflector
100
AcDbLine
 10
10.32233370260739
 20
41.25676650569549
 30
0.0
 11
130.3223337026073
 21
41.25676650569551
 31
0.0
  0
LINE
  5
3133
330
30D6
100
AcDbEntity
  8
COMBUSTION Radiant Tubes
100
AcDbLine
 10
126.4073337026073
 20
38.10176650569551
 30
0.0
 11
130.3223337026073
 21
38.10176650569551
 31
0.0
  0
LINE
  5
3134
330
30D6
100
AcDbEntity
  8
COMBUSTION Radiant Tubes
100
AcDbLine
 10
126.4073337026073
 20
41.91176650569551
 30
0.0
 11
130.3223337026073
 21
41.91176650569551
 31
0.0
  0
LINE
  5
3135
330
30D6
100
AcDbEntity
  8
COMBUSTION Radiant Tubes
100
AcDbLine
 10
10.32233370260738
 20
41.99676650569549
 30
0.0
 11
126.3223337026073
 21
41.9967665056955
 31
0.0
  0
LINE
  5
3136
330
30D6
100
AcDbEntity
  8
COMBUSTION Radiant Tubes
100
AcDbLine
 10
126.3223337026073
 20
41.9967665056955
 30
0.0
 11
126.3223337026073
 21
38.0167665056955
 31
0.0
  0
LINE
  5
3137
330
30D6
100
AcDbEntity
  8
COMBUSTION Radiant Tubes
100
AcDbLine
 10
126.4073337026073
 20
41.91176650569551
 30
0.0
 11
126.3223337026073
 21
41.9967665056955
 31
0.0
  0
LINE
  5
3138
330
30D6
100
AcDbEntity
  8
COMBUSTION Radiant Tubes
100
AcDbLine
 10
126.4073337026073
 20
41.91176650569551
 30
0.0
 11
126.4073337026073
 21
38.10176650569551
 31
0.0
  0
LINE
  5
3139
330
30D6
100
AcDbEntity
  8
COMBUSTION Radiant Tubes
100
AcDbLine
 10
126.4073337026073
 20
38.10176650569551
 30
0.0
 11
126.3223337026073
 21
38.0167665056955
 31
0.0
  0
LINE
  5
313A
330
30D6
100
AcDbEntity
  8
COMBUSTION Radiant Tubes
100
AcDbLine
 10
130.3223337026073
 20
38.10176650569551
 30
0.0
 11
130.3223337026073
 21
41.91176650569551
 31
0.0
  0
LINE
  5
313B
330
30D6
100
AcDbEntity
  8
COMBUSTION Reflector
100
AcDbLine
 10
10.32233370260739
 20
33.38176650569557
 30
0.0
 11
10.32233370260739
 21
46.63176650569556
 31
0.0
  0
LINE
  5
313C
330
30D6
100
AcDbEntity
  8
COMBUSTION Radiant Tubes
100
AcDbLine
 10
10.32233370260738
 20
38.01676650569551
 30
0.0
 11
10.32233370260739
 21
41.99676650569549
 31
0.0
  0
INSERT
  5
313D
330
30D6
100
AcDbEntity
  8
0
100
AcDbBlockReference
  2
RUP
 10
127.8878545660749
 20
11.76499114987615
 30
0.0
  0
INSERT
  5
313E
330
30D6
100
AcDbEntity
  8
0
100
AcDbBlockReference
  2
4 in - 10 ft Tube
 10
116.4442442022245
 20
-16.00000000000004
 30
0.0
 41
-1.0
  0
INSERT
  5
313F
330
30D6
100
AcDbEntity
  8
0
100
AcDbBlockReference
  2
4 in BURNER BOX
 10
-28.34053093845921
 20
0.0000000000000071
 30
0.0
  0
ENDBLK
  5
30EF
330
30D6
100
AcDbEntity
  8
0
100
AcDbBlockEnd
  0
ENDSEC
  0
SECTION
  2
ENTITIES
  0
INSERT
  5
164
330
23
100
AcDbEntity
  8
0
100
AcDbBlockReference
  2
layers
 10
0.8387486649539821
 20
-3.611935436597064
 30
0.0
  0
INSERT
  5
47F
330
23
100
AcDbEntity
  8
0
100
AcDbBlockReference
  2
layers
 10
12.64909675321417
 20
9.076086994407404
 30
0.0
  0
INSERT
  5
67A
330
23
100
AcDbEntity
  8
0
100
AcDbBlockReference
  2
layers
 10
23.68122702935232
 20
1.494550467476614
 30
0.0
  0
INSERT
  5
8ED
330
23
100
AcDbEntity
  8
0
100
AcDbBlockReference
  2
layers
 10
25.68910834918592
 20
12.47561043609022
 30
0.0
  0
INSERT
  5
1779
330
23
100
AcDbEntity
  8
0
100
AcDbBlockReference
  2
layers
 10
4005.403377466062
 20
2386.589425638275
 30
0.0
  0
INSERT
  5
195F
330
23
100
AcDbEntity
  8
0
100
AcDbBlockReference
  2
layers
 10
2812.023053209706
 20
889.4146396532802
 30
0.0
 50
180.0
  0
INSERT
  5
1964
330
23
100
AcDbEntity
  8
0
100
AcDbBlockReference
  2
layers
 10
3177.023053209707
 20
889.41463965328
 30
0.0
 50
180.0
  0
INSERT
  5
1C38
330
23
100
AcDbEntity
  8
0
100
AcDbBlockReference
  2
layers
 10
3487.208200375695
 20
2289.015190068419
 30
0.0
  0
INSERT
  5
1C5C
330
23
100
AcDbEntity
  8
0
100
AcDbBlockReference
  2
layers
 10
3719.208200375695
 20
2289.015190068419
 30
0.0
  0
INSERT
  5
1CA2
330
23
100
AcDbEntity
  8
0
100
AcDbBlockReference
  2
layers
 10
4352.668123852659
 20
1983.379714513365
 30
0.0
 50
180.0
  0
INSERT
  5
1CC6
330
23
100
AcDbEntity
  8
0
100
AcDbBlockReference
  2
layers
 10
-4154.024405609434
 20
2292.550395297947
 30
0.0
 43
-1.0
 50
180.0
210
0.0
220
0.0
230
-1.0
  0
INSERT
  5
1CDA
330
23
100
AcDbEntity
  8
0
100
AcDbBlockReference
  2
layers
 10
-4153.905352170547
 20
2037.8120328891
 30
0.0
 43
-1.0
 50
90.0
210
0.0
220
0.0
230
-1.0
  0
INSERT
  5
2116
330
23
100
AcDbEntity
  8
0
100
AcDbBlockReference
  2
layers
 10
6587.557249977392
 20
3649.942832759772
 30
0.0
  0
INSERT
  5
21A1
330
23
100
AcDbEntity
  8
0
100
AcDbBlockReference
  2
layers
 10
6357.824868347478
 20
3593.658285467097
 30
0.0
  0
INSERT
  5
21F9
330
23
100
AcDbEntity
  8
0
100
AcDbBlockReference
  2
layers
 10
-6341.032732110387
 20
3604.67510161178
 30
0.0
 43
-1.0
210
0.0
220
0.0
230
-1.0
  0
INSERT
  5
222E
330
23
100
AcDbEntity
  8
0
100
AcDbBlockReference
  2
layers
 10
6291.318299696513
 20
4063.924572468751
 30
0.0
 50
270.0
  0
INSERT
  5
2277
330
23
100
AcDbEntity
  8
0
100
AcDbBlockReference
  2
layers
 10
6371.461487351094
 20
3608.070746907193
 30
0.0
 50
270.0
  0
INSERT
  5
23BF
330
23
100
AcDbEntity
  8
0
100
AcDbBlockReference
  2
layers
 10
6521.001551711691
 20
3985.910017899429
 30
0.0
 50
180.0
  0
INSERT
  5
2432
330
23
100
AcDbEntity
  8
0
100
AcDbBlockReference
  2
layers
 10
7034.807353865996
 20
3726.350671525807
 30
0.0
 50
270.0
  0
INSERT
  5
245F
330
23
100
AcDbEntity
  8
0
100
AcDbBlockReference
  2
layers
 10
6703.878909172508
 20
4042.706953282583
 30
0.0
 50
90.0
  0
INSERT
  5
2A47
330
23
100
AcDbEntity
  8
0
100
AcDbBlockReference
  2
layers
 10
4128.53026083983
 20
4705.8023978206
 30
0.0
  0
INSERT
  5
2B40
330
23
100
AcDbEntity
  8
0
100
AcDbBlockReference
  2
layers
 10
6578.035271414638
 20
3031.263824318219
 30
0.0
  0
INSERT
  5
2B73
330
23
100
AcDbEntity
  8
0
100
AcDbBlockReference
  2
layers
 10
6520.00852179784
 20
3871.521923328866
 30
0.0
  0
INSERT
  5
2B78
330
23
100
AcDbEntity
  8
0
100
AcDbBlockReference
  2
layers
 10
6769.008521797839
 20
3871.521923328867
 30
0.0
  0
INSERT
  5
30F0
330
23
100
AcDbEntity
  8
0
100
AcDbBlockReference
  2
4 in - 20 ft U-Tube
 10
-10.3223337026074
 20
-33.38176650569558
 30
0.0
  0
ENDSEC
  0
SECTION
  2
OBJECTS
  0
DICTIONARY
  5
C
330
0
100
AcDbDictionary
281
     1
  3
ACAD_COLOR
350
1C
  3
ACAD_GROUP
350
D
  3
ACAD_LAYOUT
350
1A
  3
ACAD_MATERIAL
350
1B
  3
ACAD_MLEADERSTYLE
350
2CFD
  3
ACAD_MLINESTYLE
350
17
  3
ACAD_PLOTSETTINGS
350
19
  3
ACAD_PLOTSTYLENAME
350
E
  3
ACAD_SCALELIST
350
2CEB
  3
ACAD_TABLESTYLE
350
1D
  3
ACAD_VISUALSTYLE
350
2CD2
  3
AcadDim
350
2C10
  3
ACDB_RECOMPOSE_DATA
350
3143
  3
AcDbVariableDictionary
350
166
  3
AEC_CLASSIFICATION_SYSTEM_DEFS
350
C97
  3
AEC_PROPERTY_SET_DEFS
350
C98
  0
DICTIONARY
  5
2D70
330
8
100
AcDbDictionary
280
     1
281
     1
  0
DICTIONARY
  5
179
330
2
100
AcDbDictionary
280
     1
281
     1
  3
ACAD_LAYERFILTERS
360
2C80
  3
ACAD_LAYERSTATES
360
3A5
  3
ACLYDICTIONARY
360
2C7F
  0
DICTIONARY
  5
2DB3
330
10
100
AcDbDictionary
280
     1
281
     1
  3
ADSK_XREC_LAYER_RECONCILED
360
2DB4
  0
DICTIONARY
  5
2DB5
330
15D
100
AcDbDictionary
280
     1
281
     1
  3
ADSK_XREC_LAYER_RECONCILED
360
2DB6
  0
DICTIONARY
  5
2DB9
330
654
100
AcDbDictionary
280
     1
281
     1
  3
ADSK_XREC_LAYER_RECONCILED
360
2DBA
  0
DICTIONARY
  5
2DBB
330
C78
100
AcDbDictionary
280
     1
281
     1
  3
ADSK_XREC_LAYER_RECONCILED
360
2DBC
  0
DICTIONARY
  5
2DBD
330
C79
100
AcDbDictionary
280
     1
281
     1
  3
ADSK_XREC_LAYER_RECONCILED
360
2DBE
  0
DICTIONARY
  5
2DBF
330
C7A
100
AcDbDictionary
280
     1
281
     1
  3
ADSK_XREC_LAYER_RECONCILED
360
2DC0
  0
DICTIONARY
  5
2DC1
330
C7C
100
AcDbDictionary
280
     1
281
     1
  3
ADSK_XREC_LAYER_RECONCILED
360
2DC2
  0
DICTIONARY
  5
32
330
23
100
AcDbDictionary
280
     1
281
     1
  3
ACAD_SORTENTS
360
33
  0
DICTIONARY
  5
2E35
330
2E34
100
AcDbDictionary
280
     1
281
     1
  3
ACAD_SORTENTS
360
2E36
  0
DICTIONARY
  5
2E4C
330
2E4B
100
AcDbDictionary
280
     1
281
     1
  3
ACAD_SORTENTS
360
2E4D
  0
DICTIONARY
  5
2FAB
330
2F96
100
AcDbDictionary
280
     1
281
     1
  3
ACAD_SORTENTS
360
305D
  0
DICTIONARY
  5
2FF7
330
2FF6
100
AcDbDictionary
280
     1
281
     1
  3
ACAD_SORTENTS
360
2FF8
  0
DICTIONARY
  5
301D
330
301C
100
AcDbDictionary
280
     1
281
     1
  3
ACAD_SORTENTS
360
301E
  0
DICTIONARY
  5
3097
330
3096
100
AcDbDictionary
280
     1
281
     1
  3
ACAD_SORTENTS
360
3098
  0
DICTIONARY
  5
30BE
330
30BD
100
AcDbDictionary
280
     1
281
     1
  3
ACAD_SORTENTS
360
30BF
  0
DICTIONARY
  5
30EC
330
30D6
100
AcDbDictionary
280
     1
281
     1
  3
ACAD_SORTENTS
360
3140
  0
DICTIONARY
  5
1C
102
{ACAD_REACTORS
330
C
102
}
330
C
100
AcDbDictionary
281
     1
  0
DICTIONARY
  5
D
102
{ACAD_REACTORS
330
C
102
}
330
C
100
AcDbDictionary
281
     1
  3
*A1
350
3A3
  3
*A2
350
3A4
  0
DICTIONARY
  5
1A
102
{ACAD_REACTORS
330
C
102
}
330
C
100
AcDbDictionary
281
     1
  3
Layout1
350
22
  3
Layout2
350
2A
  3
Model
350
26
  0
DICTIONARY
  5
1B
102
{ACAD_REACTORS
330
C
102
}
330
C
100
AcDbDictionary
281
     1
  3
ByBlock
350
2CC2
  3
ByLayer
350
2CBA
  3
Global
350
2CCA
  0
DICTIONARY
  5
2CFD
102
{ACAD_REACTORS
330
C
102
}
330
C
100
AcDbDictionary
281
     1
  3
Standard
350
2CFE
  0
DICTIONARY
  5
17
102
{ACAD_REACTORS
330
C
102
}
330
C
100
AcDbDictionary
281
     1
  3
Standard
350
18
  0
DICTIONARY
  5
19
102
{ACAD_REACTORS
330
C
102
}
330
C
100
AcDbDictionary
281
     1
  0
ACDBDICTIONARYWDFLT
  5
E
102
{ACAD_REACTORS
330
C
102
}
330
C
100
AcDbDictionary
281
     1
  3
Normal
350
F
100
AcDbDictionaryWithDefault
340
F
  0
DICTIONARY
  5
2CEB
102
{ACAD_REACTORS
330
C
102
}
330
C
100
AcDbDictionary
281
     1
  3
A0
350
2CEC
  3
A1
350
2CED
  3
A2
350
2CEE
  3
A3
350
2CEF
  3
A4
350
2CF0
  3
A5
350
2CF1
  3
A6
350
2CF2
  3
A7
350
2CF3
  3
A8
350
2CF4
  3
A9
350
2CF5
  3
B0
350
2CF6
  3
B1
350
2CF7
  3
B2
350
2CF8
  3
B3
350
2CF9
  3
B4
350
2CFA
  3
B5
350
2CFB
  3
B6
350
2CFC
  0
DICTIONARY
  5
1D
102
{ACAD_REACTORS
330
C
102
}
330
C
100
AcDbDictionary
281
     1
  3
Standard
350
1E
  0
DICTIONARY
  5
2CD2
102
{ACAD_REACTORS
330
C
102
}
330
C
100
AcDbDictionary
281
     1
  3
2dWireframe
350
2CD8
  3
Basic
350
2CD7
  3
Brighten
350
2CDE
  3
ColorChange
350
2CE2
  3
Conceptual
350
2CDB
  3
Dim
350
2CDD
  3
EdgeColorOff
350
2CEA
  3
Facepattern
350
2CE1
  3
Flat
350
2CD3
  3
FlatWithEdges
350
2CD4
  3
Gouraud
350
2CD5
  3
GouraudWithEdges
350
2CD6
  3
Hidden
350
2CDA
  3
JitterOff
350
2CE8
  3
Linepattern
350
2CE0
  3
OverhangOff
350
2CE9
  3
Realistic
350
2CDC
  3
Shaded
350
2CE7
  3
Shaded with edges
350
2CE6
  3
Shades of Gray
350
2CE3
  3
Sketchy
350
2CE4
  3
Thicken
350
2CDF
  3
Wireframe
350
2CD9
  3
X-Ray
350
2CE5
  0
XRECORD
  5
2C10
102
{ACAD_REACTORS
330
C
102
}
330
C
100
AcDbXrecord
280
     1
 90
   990106
  3

 60
     0
 61
     0
 62
     1
 63
     3
 64
     0
 65
     0
 66
     0
 67
     3
 68
     1
 69
     0
 70
     0
 71
     0
 72
     0
 40
0.0
170
     1
340
2720
  0
XRECORD
  5
3143
102
{ACAD_REACTORS
330
C
102
}
330
C
100
AcDbXrecord
280
     1
 90
        1
330
1E
  0
DICTIONARY
  5
166
102
{ACAD_REACTORS
330
C
102
}
330
C
100
AcDbDictionary
281
     1
  3
CANNOSCALE
350
2DA8
  3
CMLEADERSTYLE
350
2DA7
  3
CTABLESTYLE
350
167
  3
DIMASSOC
350
255
  3
HIDETEXT
350
254
  3
PROJECTNAME
350
256
  3
XCLIPFRAME
350
3141
  0
DICTIONARY
  5
C97
102
{ACAD_REACTORS
330
C
102
}
330
C
100
AcDbDictionary
281
     1
  0
DICTIONARY
  5
C98
102
{ACAD_REACTORS
330
C
102
}
330
C
100
AcDbDictionary
281
     1
  0
DICTIONARY
  5
2C80
102
{ACAD_REACTORS
330
179
102
}
330
179
100
AcDbDictionary
281
     1
  0
DICTIONARY
  5
3A5
102
{ACAD_REACTORS
330
179
102
}
330
179
100
AcDbDictionary
281
     1
  0
DICTIONARY
  5
2C7F
102
{ACAD_REACTORS
330
179
102
}
330
179
100
AcDbDictionary
281
     1
1001
ACAD
1000
<All
  0
XRECORD
  5
2DB4
102
{ACAD_REACTORS
330
2DB3
102
}
330
2DB3
100
AcDbXrecord
280
     1
290
     1
  0
XRECORD
  5
2DB6
102
{ACAD_REACTORS
330
2DB5
102
}
330
2DB5
100
AcDbXrecord
280
     1
290
     1
  0
XRECORD
  5
2DBA
102
{ACAD_REACTORS
330
2DB9
102
}
330
2DB9
100
AcDbXrecord
280
     1
290
     1
  0
XRECORD
  5
2DBC
102
{ACAD_REACTORS
330
2DBB
102
}
330
2DBB
100
AcDbXrecord
280
     1
290
     1
  0
XRECORD
  5
2DBE
102
{ACAD_REACTORS
330
2DBD
102
}
330
2DBD
100
AcDbXrecord
280
     1
290
     1
  0
XRECORD
  5
2DC0
102
{ACAD_REACTORS
330
2DBF
102
}
330
2DBF
100
AcDbXrecord
280
     1
290
     1
  0
XRECORD
  5
2DC2
102
{ACAD_REACTORS
330
2DC1
102
}
330
2DC1
100
AcDbXrecord
280
     1
290
     1
  0
SORTENTSTABLE
  5
33
102
{ACAD_REACTORS
330
32
102
}
330
32
100
AcDbSortentsTable
330
23
331
1964
  5
1A50
331
2B40
  5
2B78
331
245F
  5
26A5
331
8ED
  5
8F0
331
21F9
  5
26A8
331
1CC6
  5
1C6D
331
1C5C
  5
1BAD
331
2432
  5
26A3
331
47F
  5
47F
331
2B78
  5
2A25
331
195F
  5
1BF5
331
67A
  5
67C
331
23BF
  5
26AA
331
1CA2
  5
1C50
331
1C38
  5
1A64
331
2116
  5
26A4
331
1779
  5
1967
331
21A1
  5
26A6
331
2277
  5
26A9
331
2B73
  5
2A1D
331
164
  5
1DC
331
2A47
  5
2A7C
331
222E
  5
26A7
331
1CDA
  5
1C83
  0
SORTENTSTABLE
  5
2E36
102
{ACAD_REACTORS
330
2E35
102
}
330
2E35
100
AcDbSortentsTable
330
2E34
331
2E41
  5
379
331
2E42
  5
37A
331
2E3F
  5
370
331
2E43
  5
37B
331
2E48
  5
376
331
2E44
  5
37D
331
2E46
  5
37E
331
2E47
  5
37F
331
2E39
  5
374
331
2E3A
  5
377
331
2E3B
  5
373
331
2E3C
  5
371
331
2E40
  5
378
331
2E3D
  5
372
  0
SORTENTSTABLE
  5
2E4D
102
{ACAD_REACTORS
330
2E4C
102
}
330
2E4C
100
AcDbSortentsTable
330
2E4B
  0
SORTENTSTABLE
  5
305D
102
{ACAD_REACTORS
330
2FAB
102
}
330
2FAB
100
AcDbSortentsTable
330
2F96
331
304A
  5
304E
331
3050
  5
304A
331
304B
  5
3051
331
3051
  5
3052
331
304C
  5
304D
331
3052
  5
3053
331
304D
  5
304B
331
3053
  5
3054
331
304E
  5
304C
331
3054
  5
3055
331
3055
  5
3057
331
3058
  5
3059
331
3057
  5
3058
331
3059
  5
3050
  0
SORTENTSTABLE
  5
2FF8
102
{ACAD_REACTORS
330
2FF7
102
}
330
2FF7
100
AcDbSortentsTable
330
2FF6
331
3009
  5
340
331
3008
  5
34D
331
3007
  5
34C
331
3006
  5
34B
331
3005
  5
34A
331
3004
  5
349
331
2FFF
  5
344
331
2FFE
  5
343
331
3017
  5
351
331
3003
  5
348
331
2FFD
  5
342
331
3016
  5
354
331
3002
  5
346
331
2FFC
  5
341
331
3015
  5
353
331
3001
  5
347
331
3014
  5
33C
331
3000
  5
345
331
3013
  5
33B
331
3012
  5
33F
331
3011
  5
33E
331
3010
  5
33D
331
3018
  5
352
331
300F
  5
350
331
300E
  5
34F
331
300D
  5
33A
331
300C
  5
339
331
300B
  5
34E
331
300A
  5
338
  0
SORTENTSTABLE
  5
301E
102
{ACAD_REACTORS
330
301D
102
}
330
301D
100
AcDbSortentsTable
330
301C
331
3032
  5
41C
331
302C
  5
436
331
3035
  5
424
331
302F
  5
418
331
3038
  5
439
331
303B
  5
43B
331
3042
  5
42B
331
303E
  5
420
331
3045
  5
41B
331
3022
  5
428
331
3025
  5
42C
331
3028
  5
42F
331
3031
  5
41A
331
302B
  5
435
331
3034
  5
422
331
302E
  5
426
331
3037
  5
41F
331
303A
  5
433
331
3041
  5
423
331
303D
  5
432
331
3044
  5
419
331
3021
  5
427
331
3024
  5
42A
331
3027
  5
42D
331
3030
  5
438
331
302A
  5
431
331
3033
  5
421
331
302D
  5
437
331
3036
  5
41D
331
3039
  5
43A
331
3040
  5
425
331
303C
  5
434
331
3043
  5
417
331
303F
  5
41E
331
3023
  5
429
331
3026
  5
42E
331
3029
  5
430
  0
SORTENTSTABLE
  5
3098
102
{ACAD_REACTORS
330
3097
102
}
330
3097
100
AcDbSortentsTable
330
3096
331
30A5
  5
37F
331
30B4
  5
38D
331
30A0
  5
37A
331
30A8
  5
382
331
309C
  5
376
331
30A3
  5
37D
331
30B2
  5
38C
331
309F
  5
379
331
30AB
  5
384
331
30A6
  5
380
331
30B5
  5
38A
331
30A1
  5
37B
331
30B0
  5
375
331
30AE
  5
387
331
30A9
  5
383
331
309D
  5
377
331
30A4
  5
37E
331
30B3
  5
388
331
30AC
  5
386
331
30A7
  5
381
331
309B
  5
374
331
30A2
  5
37C
331
30B1
  5
38B
331
30AF
  5
389
331
30AA
  5
373
331
309E
  5
378
  0
SORTENTSTABLE
  5
30BF
102
{ACAD_REACTORS
330
30BE
102
}
330
30BE
100
AcDbSortentsTable
330
30BD
331
30CC
  5
3A8
331
30CD
  5
3AA
331
30CF
  5
3AB
331
30D0
  5
3AC
331
30D1
  5
3A3
331
30C2
  5
3A1
331
30C3
  5
3A4
331
30C4
  5
3A0
331
30C5
  5
39E
331
30C8
  5
39D
331
30C6
  5
39F
331
30C9
  5
3A5
331
30CA
  5
3A6
331
30CB
  5
3A7
  0
SORTENTSTABLE
  5
3140
102
{ACAD_REACTORS
330
30EC
102
}
330
30EC
100
AcDbSortentsTable
330
30D6
331
3130
  5
312E
331
3132
  5
312C
331
3133
  5
3134
331
3134
  5
3135
331
3135
  5
3136
331
3136
  5
3137
331
3137
  5
3139
331
312C
  5
3130
331
312D
  5
3133
331
3139
  5
313A
331
312E
  5
312F
331
313A
  5
313B
331
312F
  5
312D
331
313B
  5
3132
  0
GROUP
  5
3A3
102
{ACAD_REACTORS
330
D
102
}
330
D
100
AcDbGroup
300

 70
     0
 71
     1
  0
GROUP
  5
3A4
102
{ACAD_REACTORS
330
D
102
}
330
D
100
AcDbGroup
300

 70
     0
 71
     1
  0
LAYOUT
  5
22
102
{ACAD_REACTORS
330
1A
102
}
330
1A
100
AcDbPlotSettings
  1

  2
Auto eng-off on Server2000
  4

  6

 40
0.0
 41
0.0
 42
0.0
 43
0.0
 44
0.0
 45
0.0
 46
0.0
 47
0.0
 48
0.0
 49
0.0
140
0.0
141
0.0
142
1.0
143
1.0
 70
   688
 72
     0
 73
     0
 74
     5
  7
HLV Layouts HP 5100.ctb
 75
    16
147
1.0
 76
     0
 77
     2
 78
   300
148
0.0
149
0.0
100
AcDbLayout
  1
Layout1
 70
     1
 71
     1
 10
0.0
 20
0.0
 11
12.0
 21
9.0
 12
0.0
 22
0.0
 32
0.0
 14
1.000000000000000E+20
 24
1.000000000000000E+20
 34
1.000000000000000E+20
 15
-1.000000000000000E+20
 25
-1.000000000000000E+20
 35
-1.000000000000000E+20
146
0.0
 13
0.0
 23
0.0
 33
0.0
 16
1.0
 26
0.0
 36
0.0
 17
0.0
 27
1.0
 37
0.0
 76
     0
330
1F
  0
LAYOUT
  5
2A
102
{ACAD_REACTORS
330
1A
102
}
330
1A
100
AcDbPlotSettings
  1

  2
Auto eng-off on Server2000
  4

  6

 40
0.0
 41
0.0
 42
0.0
 43
0.0
 44
0.0
 45
0.0
 46
0.0
 47
0.0
 48
0.0
 49
0.0
140
0.0
141
0.0
142
1.0
143
1.0
 70
   688
 72
     0
 73
     0
 74
     5
  7
HLV Layouts HP 5100.ctb
 75
    16
147
1.0
 76
     0
 77
     2
 78
   300
148
0.0
149
0.0
100
AcDbLayout
  1
Layout2
 70
     1
 71
     2
 10
0.0
 20
0.0
 11
12.0
 21
9.0
 12
0.0
 22
0.0
 32
0.0
 14
0.0
 24
0.0
 34
0.0
 15
0.0
 25
0.0
 35
0.0
146
0.0
 13
0.0
 23
0.0
 33
0.0
 16
1.0
 26
0.0
 36
0.0
 17
0.0
 27
1.0
 37
0.0
 76
     0
330
27
  0
LAYOUT
  5
26
102
{ACAD_XDICTIONARY
360
2D27
102
}
102
{ACAD_REACTORS
330
1A
102
}
330
1A
100
AcDbPlotSettings
  1

  2
\\server2000\Hp Laserjet 5100
  4
11x17
  6

 40
7.143749713897705
 41
5.027085304260253
 42
7.143768310546875
 43
5.027069091796875
 44
279.3999938964844
 45
431.7999877929685
 46
0.0
 47
12.59529639703756
 48
5993.110747637569
 49
387.6874131368804
140
9249.782839946446
141
2954.647128430343
142
1.0
143
168.2314343771624
 70
 11956
 72
     0
 73
     1
 74
     1
  7
HLV Layouts HP 5100.ctb
 75
     0
147
0.0059441923187677
 76
     0
 77
     2
 78
   300
148
-155002.9850262262
149
-65535.81924278072
100
AcDbLayout
  1
Model
 70
     1
 71
     0
 10
0.0
 20
0.0
 11
12.0
 21
9.0
 12
0.0
 22
0.0
 32
0.0
 14
0.0
 24
0.0
 34
0.0
 15
0.0
 25
0.0
 35
0.0
146
0.0
 13
0.0
 23
0.0
 33
0.0
 16
1.0
 26
0.0
 36
0.0
 17
0.0
 27
1.0
 37
0.0
 76
     0
330
23
331
2CB0
1001
ACAD_PSEXT
1000
\\server2000\Hp Laserjet 5100
1000
HP LaserJet 5000 Series PCL
1000
\\server2000
1000

1070
     0
  0
MATERIAL
  5
2CC2
102
{ACAD_XDICTIONARY
360
2CC3
102
}
102
{ACAD_REACTORS
330
1B
102
}
330
1B
100
AcDbMaterial
  1
ByBlock
 72
     0
 43
0.0208333333333333
 43
0.0
 43
0.0
 43
0.0
 43
0.0
 43
0.0208333333333333
 43
0.0
 43
0.0
 43
0.0
 43
0.0
 43
1.0
 43
0.0
 43
0.0
 43
0.0
 43
0.0
 43
1.0
 77
     0
 47
0.0208333333333333
 47
0.0
 47
0.0
 47
0.0
 47
0.0
 47
0.0208333333333333
 47
0.0
 47
0.0
 47
0.0
 47
0.0
 47
1.0
 47
0.0
 47
0.0
 47
0.0
 47
0.0
 47
1.0
171
     0
 49
0.0208333333333333
 49
0.0
 49
0.0
 49
0.0
 49
0.0
 49
0.0208333333333333
 49
0.0
 49
0.0
 49
0.0
 49
0.0
 49
1.0
 49
0.0
 49
0.0
 49
0.0
 49
0.0
 49
1.0
175
     0
142
0.0208333333333333
142
0.0
142
0.0
142
0.0
142
0.0
142
0.0208333333333333
142
0.0
142
0.0
142
0.0
142
0.0
142
1.0
142
0.0
142
0.0
142
0.0
142
0.0
142
1.0
179
     0
144
0.0208333333333333
144
0.0
144
0.0
144
0.0
144
0.0
144
0.0208333333333333
144
0.0
144
0.0
144
0.0
144
0.0
144
1.0
144
0.0
144
0.0
144
0.0
144
0.0
144
1.0
147
0.0208333333333333
147
0.0
147
0.0
147
0.0
147
0.0
147
0.0208333333333333
147
0.0
147
0.0
147
0.0
147
0.0
147
1.0
147
0.0
147
0.0
147
0.0
147
0.0
147
1.0
  0
MATERIAL
  5
2CBA
102
{ACAD_XDICTIONARY
360
2CBB
102
}
102
{ACAD_REACTORS
330
1B
102
}
330
1B
100
AcDbMaterial
  1
ByLayer
 72
     0
 43
0.0208333333333333
 43
0.0
 43
0.0
 43
0.0
 43
0.0
 43
0.0208333333333333
 43
0.0
 43
0.0
 43
0.0
 43
0.0
 43
1.0
 43
0.0
 43
0.0
 43
0.0
 43
0.0
 43
1.0
 77
     0
 47
0.0208333333333333
 47
0.0
 47
0.0
 47
0.0
 47
0.0
 47
0.0208333333333333
 47
0.0
 47
0.0
 47
0.0
 47
0.0
 47
1.0
 47
0.0
 47
0.0
 47
0.0
 47
0.0
 47
1.0
171
     0
 49
0.0208333333333333
 49
0.0
 49
0.0
 49
0.0
 49
0.0
 49
0.0208333333333333
 49
0.0
 49
0.0
 49
0.0
 49
0.0
 49
1.0
 49
0.0
 49
0.0
 49
0.0
 49
0.0
 49
1.0
175
     0
142
0.0208333333333333
142
0.0
142
0.0
142
0.0
142
0.0
142
0.0208333333333333
142
0.0
142
0.0
142
0.0
142
0.0
142
1.0
142
0.0
142
0.0
142
0.0
142
0.0
142
1.0
179
     0
144
0.0208333333333333
144
0.0
144
0.0
144
0.0
144
0.0
144
0.0208333333333333
144
0.0
144
0.0
144
0.0
144
0.0
144
1.0
144
0.0
144
0.0
144
0.0
144
0.0
144
1.0
147
0.0208333333333333
147
0.0
147
0.0
147
0.0
147
0.0
147
0.0208333333333333
147
0.0
147
0.0
147
0.0
147
0.0
147
1.0
147
0.0
147
0.0
147
0.0
147
0.0
147
1.0
  0
MATERIAL
  5
2CCA
102
{ACAD_XDICTIONARY
360
2CCB
102
}
102
{ACAD_REACTORS
330
1B
102
}
330
1B
100
AcDbMaterial
  1
Global
 72
     0
 43
0.0208333333333333
 43
0.0
 43
0.0
 43
0.0
 43
0.0
 43
0.0208333333333333
 43
0.0
 43
0.0
 43
0.0
 43
0.0
 43
1.0
 43
0.0
 43
0.0
 43
0.0
 43
0.0
 43
1.0
 77
     0
 47
0.0208333333333333
 47
0.0
 47
0.0
 47
0.0
 47
0.0
 47
0.0208333333333333
 47
0.0
 47
0.0
 47
0.0
 47
0.0
 47
1.0
 47
0.0
 47
0.0
 47
0.0
 47
0.0
 47
1.0
171
     0
 49
0.0208333333333333
 49
0.0
 49
0.0
 49
0.0
 49
0.0
 49
0.0208333333333333
 49
0.0
 49
0.0
 49
0.0
 49
0.0
 49
1.0
 49
0.0
 49
0.0
 49
0.0
 49
0.0
 49
1.0
175
     0
142
0.0208333333333333
142
0.0
142
0.0
142
0.0
142
0.0
142
0.0208333333333333
142
0.0
142
0.0
142
0.0
142
0.0
142
1.0
142
0.0
142
0.0
142
0.0
142
0.0
142
1.0
179
     0
144
0.0208333333333333
144
0.0
144
0.0
144
0.0
144
0.0
144
0.0208333333333333
144
0.0
144
0.0
144
0.0
144
0.0
144
1.0
144
0.0
144
0.0
144
0.0
144
0.0
144
1.0
147
0.0208333333333333
147
0.0
147
0.0
147
0.0
147
0.0
147
0.0208333333333333
147
0.0
147
0.0
147
0.0
147
0.0
147
1.0
147
0.0
147
0.0
147
0.0
147
0.0
147
1.0
  0
MLEADERSTYLE
  5
2CFE
102
{ACAD_REACTORS
330
2CFD
102
}
330
2CFD
100
AcDbMLeaderStyle
170
     2
171
     1
172
     0
 90
        2
 40
0.0
 41
0.0
173
     1
 91
-1056964608
340
14
 92
       -2
290
     1
 42
0.09
291
     1
 43
0.36
  3
Standard
 44
0.18
300

342
11
174
     1
178
     6
175
     1
176
     0
 93
-1056964608
 45
0.18
292
     0
297
     0
 46
0.18
 94
-1056964608
 47
1.0
 49
1.0
140
1.0
293
     1
141
0.0
294
     1
177
     0
142
1.0
295
     0
296
     0
143
0.125
1001
ACAD_MLEADERVER
1070
     2
  0
MLINESTYLE
  5
18
102
{ACAD_REACTORS
330
17
102
}
330
17
100
AcDbMlineStyle
  2
STANDARD
 70
     0
  3

 62
   256
 51
90.0
 52
90.0
 71
     2
 49
0.5
 62
   256
  6
BYLAYER
 49
-0.5
 62
   256
  6
BYLAYER
  0
ACDBPLACEHOLDER
  5
F
102
{ACAD_REACTORS
330
E
102
}
330
E
  0
SCALE
  5
2CEC
102
{ACAD_REACTORS
330
2CEB
102
}
330
2CEB
100
AcDbScale
 70
     0
300
1:1
140
1.0
141
1.0
290
     1
  0
SCALE
  5
2CED
102
{ACAD_REACTORS
330
2CEB
102
}
330
2CEB
100
AcDbScale
 70
     0
300
1/128" = 1'-0"
140
0.0078125
141
12.0
290
     0
  0
SCALE
  5
2CEE
102
{ACAD_REACTORS
330
2CEB
102
}
330
2CEB
100
AcDbScale
 70
     0
300
1/64" = 1'-0"
140
0.015625
141
12.0
290
     0
  0
SCALE
  5
2CEF
102
{ACAD_REACTORS
330
2CEB
102
}
330
2CEB
100
AcDbScale
 70
     0
300
1/32" = 1'-0"
140
0.03125
141
12.0
290
     0
  0
SCALE
  5
2CF0
102
{ACAD_REACTORS
330
2CEB
102
}
330
2CEB
100
AcDbScale
 70
     0
300
1/16" = 1'-0"
140
0.0625
141
12.0
290
     0
  0
SCALE
  5
2CF1
102
{ACAD_REACTORS
330
2CEB
102
}
330
2CEB
100
AcDbScale
 70
     0
300
3/32" = 1'-0"
140
0.09375
141
12.0
290
     0
  0
SCALE
  5
2CF2
102
{ACAD_REACTORS
330
2CEB
102
}
330
2CEB
100
AcDbScale
 70
     0
300
1/8" = 1'-0"
140
0.125
141
12.0
290
     0
  0
SCALE
  5
2CF3
102
{ACAD_REACTORS
330
2CEB
102
}
330
2CEB
100
AcDbScale
 70
     0
300
3/16" = 1'-0"
140
0.1875
141
12.0
290
     0
  0
SCALE
  5
2CF4
102
{ACAD_REACTORS
330
2CEB
102
}
330
2CEB
100
AcDbScale
 70
     0
300
1/4" = 1'-0"
140
0.25
141
12.0
290
     0
  0
SCALE
  5
2CF5
102
{ACAD_REACTORS
330
2CEB
102
}
330
2CEB
100
AcDbScale
 70
     0
300
3/8" = 1'-0"
140
0.375
141
12.0
290
     0
  0
SCALE
  5
2CF6
102
{ACAD_REACTORS
330
2CEB
102
}
330
2CEB
100
AcDbScale
 70
     0
300
1/2" = 1'-0"
140
0.5
141
12.0
290
     0
  0
SCALE
  5
2CF7
102
{ACAD_REACTORS
330
2CEB
102
}
330
2CEB
100
AcDbScale
 70
     0
300
3/4" = 1'-0"
140
0.75
141
12.0
290
     0
  0
SCALE
  5
2CF8
102
{ACAD_REACTORS
330
2CEB
102
}
330
2CEB
100
AcDbScale
 70
     0
300
1" = 1'-0"
140
1.0
141
12.0
290
     0
  0
SCALE
  5
2CF9
102
{ACAD_REACTORS
330
2CEB
102
}
330
2CEB
100
AcDbScale
 70
     0
300
1-1/2" = 1'-0"
140
1.5
141
12.0
290
     0
  0
SCALE
  5
2CFA
102
{ACAD_REACTORS
330
2CEB
102
}
330
2CEB
100
AcDbScale
 70
     0
300
3" = 1'-0"
140
3.0
141
12.0
290
     0
  0
SCALE
  5
2CFB
102
{ACAD_REACTORS
330
2CEB
102
}
330
2CEB
100
AcDbScale
 70
     0
300
6" = 1'-0"
140
6.0
141
12.0
290
     0
  0
SCALE
  5
2CFC
102
{ACAD_REACTORS
330
2CEB
102
}
330
2CEB
100
AcDbScale
 70
     0
300
1'-0" = 1'-0"
140
12.0
141
12.0
290
     0
  0
TABLESTYLE
  5
1E
102
{ACAD_XDICTIONARY
360
2D6D
102
}
102
{ACAD_REACTORS
330
1D
102
}
330
1D
100
AcDbTableStyle
  3
Standard
 70
     0
 71
     0
 40
0.06
 41
0.06
280
     0
281
     0
  7
Standard
140
0.18
170
     2
 62
     0
 63
     7
283
     0
274
    -2
284
     1
 64
     0
275
    -2
285
     1
 65
     0
276
    -2
286
     1
 66
     0
277
    -2
287
     1
 67
     0
278
    -2
288
     1
 68
     0
279
    -2
289
     1
 69
     0
  7
Standard
140
0.25
170
     5
 62
     0
 63
     7
283
     0
274
    -2
284
     1
 64
     0
275
    -2
285
     1
 65
     0
276
    -2
286
     1
 66
     0
277
    -2
287
     1
 67
     0
278
    -2
288
     1
 68
     0
279
    -2
289
     1
 69
     0
  7
Standard
140
0.18
170
     5
 62
     0
 63
     7
283
     0
274
    -2
284
     1
 64
     0
275
    -2
285
     1
 65
     0
276
    -2
286
     1
 66
     0
277
    -2
287
     1
 67
     0
278
    -2
288
     1
 68
     0
279
    -2
289
     1
 69
     0
  0
VISUALSTYLE
  5
2CD8
102
{ACAD_XDICTIONARY
360
314F
102
}
102
{ACAD_REACTORS
330
2CD2
102
}
330
2CD2
100
AcDbVisualStyle
  2

 70
     4
 71
     0
 72
     2
 73
     0
 90
        0
 40
-0.6
 41
-30.0
 62
     5
 63
     7
421
 16777215
 74
     1
 91
        4
 64
     7
 65
   257
 75
     1
175
     1
 42
1.0
 92
        0
 66
   257
 43
1.0
 76
     1
 77
     6
 78
     2
 67
     7
 79
     5
170
     0
171
     0
290
     0
174
     0
 93
        1
 44
0.0
173
     0
291
     0
 45
0.0
1001
ACAD
1000
AcDbSavedByObjectVersion
1070
     0
  0
VISUALSTYLE
  5
2CD7
102
{ACAD_XDICTIONARY
360
314D
102
}
102
{ACAD_REACTORS
330
2CD2
102
}
330
2CD2
100
AcDbVisualStyle
  2

 70
     7
 71
     1
 72
     0
 73
     1
 90
        0
 40
-0.6
 41
-30.0
 62
     5
 63
     7
421
 16777215
 74
     0
 91
        4
 64
     7
 65
   257
 75
     1
175
     1
 42
1.0
 92
        8
 66
     7
 43
1.0
 76
     1
 77
     6
 78
     2
 67
     7
 79
     5
170
     0
171
     0
290
     0
174
     0
 93
        1
 44
0.0
173
     0
291
     1
 45
0.0
1001
ACAD
1000
AcDbSavedByObjectVersion
1070
     0
  0
VISUALSTYLE
  5
2CDE
102
{ACAD_XDICTIONARY
360
315B
102
}
102
{ACAD_REACTORS
330
2CD2
102
}
330
2CD2
100
AcDbVisualStyle
  2

 70
    12
 71
     2
 72
     2
 73
     0
 90
        0
 40
-0.6
 41
-30.0
 62
     5
 63
     7
421
 16777215
 74
     1
 91
        4
 64
     7
 65
   257
 75
     1
175
     1
 42
1.0
 92
        8
 66
     7
 43
1.0
 76
     1
 77
     6
 78
     2
 67
     7
 79
     5
170
     0
171
     0
290
     0
174
     0
 93
        1
 44
50.0
173
     0
291
     1
 45
0.0
1001
ACAD
1000
AcDbSavedByObjectVersion
1070
     0
  0
VISUALSTYLE
  5
2CE2
102
{ACAD_XDICTIONARY
360
3163
102
}
102
{ACAD_REACTORS
330
2CD2
102
}
330
2CD2
100
AcDbVisualStyle
  2

 70
    16
 71
     2
 72
     2
 73
     3
 90
        0
 40
-0.6
 41
-30.0
 62
     5
 63
     8
421
  8421504
 74
     1
 91
        4
 64
     7
 65
   257
 75
     1
175
     1
 42
1.0
 92
        8
 66
     8
424
  8421504
 43
1.0
 76
     1
 77
     6
 78
     2
 67
     7
 79
     5
170
     0
171
     0
290
     0
174
     0
 93
        1
 44
0.0
173
     0
291
     1
 45
0.0
1001
ACAD
1000
AcDbSavedByObjectVersion
1070
     0
  0
VISUALSTYLE
  5
2CDB
102
{ACAD_XDICTIONARY
360
3155
102
}
102
{ACAD_REACTORS
330
2CD2
102
}
330
2CD2
100
AcDbVisualStyle
  2

 70
     9
 71
     3
 72
     2
 73
     0
 90
        0
 40
-0.6
 41
-30.0
 62
     5
 63
     7
421
 16777215
 74
     2
 91
        2
 64
     7
 65
   257
 75
     1
175
     1
 42
179.0
 92
        8
 66
     7
 43
1.0
 76
     1
 77
     6
 78
     2
 67
     7
 79
     3
170
     0
171
     0
290
     0
174
     0
 93
        1
 44
0.0
173
     0
291
     0
 45
0.0
1001
ACAD
1000
AcDbSavedByObjectVersion
1070
     0
  0
VISUALSTYLE
  5
2CDD
102
{ACAD_XDICTIONARY
360
3159
102
}
102
{ACAD_REACTORS
330
2CD2
102
}
330
2CD2
100
AcDbVisualStyle
  2

 70
    11
 71
     2
 72
     2
 73
     0
 90
        0
 40
-0.6
 41
-30.0
 62
     5
 63
     7
421
 16777215
 74
     1
 91
        4
 64
     7
 65
   257
 75
     1
175
     1
 42
1.0
 92
        8
 66
     7
 43
1.0
 76
     1
 77
     6
 78
     2
 67
     7
 79
     5
170
     0
171
     0
290
     0
174
     0
 93
        1
 44
-50.0
173
     0
291
     1
 45
0.0
1001
ACAD
1000
AcDbSavedByObjectVersion
1070
     0
  0
VISUALSTYLE
  5
2CEA
102
{ACAD_XDICTIONARY
360
3173
102
}
102
{ACAD_REACTORS
330
2CD2
102
}
330
2CD2
100
AcDbVisualStyle
  2

 70
    22
 71
     2
 72
     2
 73
     0
 90
        0
 40
-0.6
 41
-30.0
 62
     5
 63
     7
421
 16777215
 74
     1
 91
        4
 64
     7
 65
   257
 75
     1
175
     1
 42
1.0
 92
        8
 66
     7
 43
1.0
 76
     1
 77
     6
 78
     2
 67
     7
 79
     5
170
     0
171
     0
290
     0
174
     0
 93
        1
 44
0.0
173
     0
291
     1
 45
0.0
1001
ACAD
1000
AcDbSavedByObjectVersion
1070
     0
  0
VISUALSTYLE
  5
2CE1
102
{ACAD_XDICTIONARY
360
3161
102
}
102
{ACAD_REACTORS
330
2CD2
102
}
330
2CD2
100
AcDbVisualStyle
  2

 70
    15
 71
     2
 72
     2
 73
     0
 90
        0
 40
-0.6
 41
-30.0
 62
     5
 63
     7
421
 16777215
 74
     1
 91
        4
 64
     7
 65
   257
 75
     1
175
     1
 42
1.0
 92
        8
 66
     7
 43
1.0
 76
     1
 77
     6
 78
     2
 67
     7
 79
     5
170
     0
171
     0
290
     0
174
     0
 93
        1
 44
0.0
173
     0
291
     1
 45
0.0
1001
ACAD
1000
AcDbSavedByObjectVersion
1070
     0
  0
VISUALSTYLE
  5
2CD3
102
{ACAD_XDICTIONARY
360
3145
102
}
102
{ACAD_REACTORS
330
2CD2
102
}
330
2CD2
100
AcDbVisualStyle
  2

 70
     0
 71
     2
 72
     1
 73
     1
 90
        2
 40
-0.6
 41
30.0
 62
     5
 63
     7
421
 16777215
 74
     0
 91
        0
 64
     7
 65
   257
 75
     1
175
     1
 42
1.0
 92
        8
 66
     7
 43
1.0
 76
     1
 77
     6
 78
     2
 67
     7
 79
     5
170
     0
171
     0
290
     0
174
     0
 93
       13
 44
0.0
173
     0
291
     1
 45
0.0
1001
ACAD
1000
AcDbSavedByObjectVersion
1070
     0
  0
VISUALSTYLE
  5
2CD4
102
{ACAD_XDICTIONARY
360
3147
102
}
102
{ACAD_REACTORS
330
2CD2
102
}
330
2CD2
100
AcDbVisualStyle
  2

 70
     1
 71
     2
 72
     1
 73
     1
 90
        2
 40
-0.6
 41
30.0
 62
     5
 63
     7
421
 16777215
 74
     1
 91
        0
 64
     7
 65
   257
 75
     1
175
     1
 42
1.0
 92
        0
 66
   257
 43
1.0
 76
     1
 77
     6
 78
     2
 67
     7
 79
     5
170
     0
171
     0
290
     0
174
     0
 93
       13
 44
0.0
173
     0
291
     1
 45
0.0
1001
ACAD
1000
AcDbSavedByObjectVersion
1070
     0
  0
VISUALSTYLE
  5
2CD5
102
{ACAD_XDICTIONARY
360
3149
102
}
102
{ACAD_REACTORS
330
2CD2
102
}
330
2CD2
100
AcDbVisualStyle
  2

 70
     2
 71
     2
 72
     2
 73
     1
 90
        2
 40
-0.6
 41
30.0
 62
     5
 63
     7
421
 16777215
 74
     0
 91
        0
 64
     7
 65
   257
 75
     1
175
     1
 42
1.0
 92
        0
 66
     7
 43
1.0
 76
     1
 77
     6
 78
     2
 67
     7
 79
     5
170
     0
171
     0
290
     0
174
     0
 93
       13
 44
0.0
173
     0
291
     1
 45
0.0
1001
ACAD
1000
AcDbSavedByObjectVersion
1070
     0
  0
VISUALSTYLE
  5
2CD6
102
{ACAD_XDICTIONARY
360
314B
102
}
102
{ACAD_REACTORS
330
2CD2
102
}
330
2CD2
100
AcDbVisualStyle
  2

 70
     3
 71
     2
 72
     2
 73
     1
 90
        2
 40
-0.6
 41
30.0
 62
     5
 63
     7
421
 16777215
 74
     1
 91
        0
 64
     7
 65
   257
 75
     1
175
     1
 42
1.0
 92
        0
 66
   257
 43
1.0
 76
     1
 77
     6
 78
     2
 67
     7
 79
     5
170
     0
171
     0
290
     0
174
     0
 93
       13
 44
0.0
173
     0
291
     1
 45
0.0
1001
ACAD
1000
AcDbSavedByObjectVersion
1070
     0
  0
VISUALSTYLE
  5
2CDA
102
{ACAD_XDICTIONARY
360
3153
102
}
102
{ACAD_REACTORS
330
2CD2
102
}
330
2CD2
100
AcDbVisualStyle
  2

 70
     6
 71
     1
 72
     2
 73
     2
 90
        0
 40
-0.6
 41
-30.0
 62
     5
 63
     7
421
 16777215
 74
     2
 91
        2
 64
     7
 65
   257
 75
     2
175
     1
 42
40.0
 92
        0
 66
   257
 43
1.0
 76
     1
 77
     6
 78
     2
 67
     7
 79
     3
170
     0
171
     0
290
     0
174
     0
 93
        1
 44
0.0
173
     0
291
     0
 45
0.0
1001
ACAD
1000
AcDbSavedByObjectVersion
1070
     0
  0
VISUALSTYLE
  5
2CE8
102
{ACAD_XDICTIONARY
360
316F
102
}
102
{ACAD_REACTORS
330
2CD2
102
}
330
2CD2
100
AcDbVisualStyle
  2

 70
    20
 71
     2
 72
     2
 73
     0
 90
        0
 40
-0.6
 41
-30.0
 62
     5
 63
     7
421
 16777215
 74
     1
 91
        4
 64
     7
 65
   257
 75
     1
175
     1
 42
1.0
 92
       10
 66
     7
 43
1.0
 76
     1
 77
     6
 78
     2
 67
     7
 79
     5
170
     0
171
     0
290
     0
174
     0
 93
        1
 44
0.0
173
     0
291
     1
 45
0.0
1001
ACAD
1000
AcDbSavedByObjectVersion
1070
     0
  0
VISUALSTYLE
  5
2CE0
102
{ACAD_XDICTIONARY
360
315F
102
}
102
{ACAD_REACTORS
330
2CD2
102
}
330
2CD2
100
AcDbVisualStyle
  2

 70
    14
 71
     2
 72
     2
 73
     0
 90
        0
 40
-0.6
 41
-30.0
 62
     5
 63
     7
421
 16777215
 74
     1
 91
        4
 64
     7
 65
   257
 75
     7
175
     7
 42
1.0
 92
        8
 66
     7
 43
1.0
 76
     1
 77
     6
 78
     2
 67
     7
 79
     5
170
     0
171
     0
290
     0
174
     0
 93
        1
 44
0.0
173
     0
291
     1
 45
0.0
1001
ACAD
1000
AcDbSavedByObjectVersion
1070
     0
  0
VISUALSTYLE
  5
2CE9
102
{ACAD_XDICTIONARY
360
3171
102
}
102
{ACAD_REACTORS
330
2CD2
102
}
330
2CD2
100
AcDbVisualStyle
  2

 70
    21
 71
     2
 72
     2
 73
     0
 90
        0
 40
-0.6
 41
-30.0
 62
     5
 63
     7
421
 16777215
 74
     1
 91
        4
 64
     7
 65
   257
 75
     1
175
     1
 42
1.0
 92
        9
 66
     7
 43
1.0
 76
     1
 77
     6
 78
     2
 67
     7
 79
     5
170
     0
171
     0
290
     0
174
     0
 93
        1
 44
0.0
173
     0
291
     1
 45
0.0
1001
ACAD
1000
AcDbSavedByObjectVersion
1070
     0
  0
VISUALSTYLE
  5
2CDC
102
{ACAD_XDICTIONARY
360
3157
102
}
102
{ACAD_REACTORS
330
2CD2
102
}
330
2CD2
100
AcDbVisualStyle
  2

 70
     8
 71
     2
 72
     2
 73
     0
 90
        2
 40
-0.6
 41
30.0
 62
     5
 63
     7
421
 16777215
 74
     0
 91
        0
 64
     7
 65
   257
 75
     1
175
     1
 42
1.0
 92
        8
 66
   257
 43
1.0
 76
     1
 77
     6
 78
     2
 67
     7
 79
     3
170
     0
171
     0
290
     0
174
     0
 93
       13
 44
0.0
173
     0
291
     0
 45
0.0
1001
ACAD
1000
AcDbSavedByObjectVersion
1070
     0
  0
VISUALSTYLE
  5
2CE7
102
{ACAD_XDICTIONARY
360
316D
102
}
102
{ACAD_REACTORS
330
2CD2
102
}
330
2CD2
100
AcDbVisualStyle
  2

 70
    27
 71
     2
 72
     2
 73
     1
 90
        2
 40
-0.6
 41
30.0
 62
     5
 63
     7
421
 16777215
 74
     0
 91
        4
 64
     7
 65
   257
 75
     1
175
     1
 42
1.0
 92
        8
 66
   257
 43
1.0
 76
     1
 77
     6
 78
     2
 67
     8
425
  7895160
 79
     3
170
     0
171
     0
290
     0
174
     0
 93
        5
 44
0.0
173
     0
291
     0
 45
0.0
1001
ACAD
1000
AcDbSavedByObjectVersion
1070
     0
  0
VISUALSTYLE
  5
2CE6
102
{ACAD_XDICTIONARY
360
316B
102
}
102
{ACAD_REACTORS
330
2CD2
102
}
330
2CD2
100
AcDbVisualStyle
  2

 70
    26
 71
     2
 72
     2
 73
     1
 90
        2
 40
-0.6
 41
30.0
 62
     5
 63
     7
421
 16777215
 74
     1
 91
       10
 64
     7
 65
   257
 75
     2
175
     1
 42
1.0
 92
        8
 66
   257
 43
1.0
 76
     1
 77
     6
 78
     2
 67
     7
 79
     3
170
     0
171
     0
290
     0
174
     0
 93
        5
 44
0.0
173
     0
291
     0
 45
0.0
1001
ACAD
1000
AcDbSavedByObjectVersion
1070
     0
  0
VISUALSTYLE
  5
2CE3
102
{ACAD_XDICTIONARY
360
3165
102
}
102
{ACAD_REACTORS
330
2CD2
102
}
330
2CD2
100
AcDbVisualStyle
  2

 70
    23
 71
     2
 72
     2
 73
     3
 90
        0
 40
-0.6
 41
-30.0
 62
     5
 63
     7
421
 16777215
 74
     2
 91
        2
 64
     7
 65
     7
 75
     1
175
     1
 42
40.0
 92
        8
 66
     7
 43
1.0
 76
     1
 77
     6
 78
     2
 67
     7
 79
     3
170
     0
171
     0
290
     0
174
     0
 93
        1
 44
0.0
173
     0
291
     0
 45
0.0
1001
ACAD
1000
AcDbSavedByObjectVersion
1070
     0
  0
VISUALSTYLE
  5
2CE4
102
{ACAD_XDICTIONARY
360
3167
102
}
102
{ACAD_REACTORS
330
2CD2
102
}
330
2CD2
100
AcDbVisualStyle
  2

 70
    24
 71
     1
 72
     2
 73
     2
 90
        0
 40
-0.6
 41
-30.0
 62
     5
 63
     7
421
 16777215
 74
     2
 91
        2
 64
     7
 65
     7
 75
     1
175
     1
 42
40.0
 92
       11
 66
     7
 43
1.0
 76
     1
 77
     6
 78
     2
 67
     7
 79
     6
170
     0
171
     0
290
     0
174
     0
 93
        1
 44
0.0
173
     0
291
     0
 45
0.0
1001
ACAD
1000
AcDbSavedByObjectVersion
1070
     0
  0
VISUALSTYLE
  5
2CDF
102
{ACAD_XDICTIONARY
360
315D
102
}
102
{ACAD_REACTORS
330
2CD2
102
}
330
2CD2
100
AcDbVisualStyle
  2

 70
    13
 71
     2
 72
     2
 73
     0
 90
        0
 40
-0.6
 41
-30.0
 62
     5
 63
     7
421
 16777215
 74
     1
 91
        4
 64
     7
 65
   257
 75
     1
175
     1
 42
1.0
 92
       12
 66
     7
 43
1.0
 76
     1
 77
     6
 78
     2
 67
     7
 79
     5
170
     0
171
     0
290
     0
174
     0
 93
        1
 44
0.0
173
     0
291
     1
 45
0.0
1001
ACAD
1000
AcDbSavedByObjectVersion
1070
     0
  0
VISUALSTYLE
  5
2CD9
102
{ACAD_XDICTIONARY
360
3151
102
}
102
{ACAD_REACTORS
330
2CD2
102
}
330
2CD2
100
AcDbVisualStyle
  2

 70
     5
 71
     0
 72
     2
 73
     0
 90
        0
 40
-0.6
 41
-30.0
 62
     5
 63
     7
421
 16777215
 74
     1
 91
        4
 64
     7
 65
   257
 75
     1
175
     1
 42
1.0
 92
        0
 66
   257
 43
1.0
 76
     1
 77
     6
 78
     2
 67
     7
 79
     3
170
     0
171
     0
290
     0
174
     0
 93
        1
 44
0.0
173
     0
291
     0
 45
0.0
1001
ACAD
1000
AcDbSavedByObjectVersion
1070
     0
  0
VISUALSTYLE
  5
2CE5
102
{ACAD_XDICTIONARY
360
3169
102
}
102
{ACAD_REACTORS
330
2CD2
102
}
330
2CD2
100
AcDbVisualStyle
  2

 70
    25
 71
     2
 72
     2
 73
     1
 90
        1
 40
0.5
 41
-30.0
 62
     5
 63
     7
421
 16777215
 74
     1
 91
        0
 64
     7
 65
   257
 75
     1
175
     1
 42
1.0
 92
        8
 66
     7
 43
1.0
 76
     1
 77
     6
 78
     2
 67
     7
 79
     3
170
     0
171
     0
290
     0
174
     0
 93
       13
 44
0.0
173
     0
291
     0
 45
0.0
1001
ACAD
1000
AcDbSavedByObjectVersion
1070
     0
  0
DICTIONARYVAR
  5
2DA8
102
{ACAD_REACTORS
330
166
102
}
330
166
100
DictionaryVariables
280
     0
  1
1:1
  0
DICTIONARYVAR
  5
2DA7
102
{ACAD_REACTORS
330
166
102
}
330
166
100
DictionaryVariables
280
     0
  1
STANDARD
  0
DICTIONARYVAR
  5
167
102
{ACAD_REACTORS
330
166
102
}
330
166
100
DictionaryVariables
280
     0
  1
STANDARD
  0
DICTIONARYVAR
  5
255
102
{ACAD_REACTORS
330
166
102
}
330
166
100
DictionaryVariables
280
     0
  1
2
  0
DICTIONARYVAR
  5
254
102
{ACAD_REACTORS
330
166
102
}
330
166
100
DictionaryVariables
280
     0
  1
1
  0
DICTIONARYVAR
  5
256
102
{ACAD_REACTORS
330
166
102
}
330
166
100
DictionaryVariables
280
     0
  1

  0
DICTIONARYVAR
  5
3141
102
{ACAD_REACTORS
330
166
102
}
330
166
100
DictionaryVariables
280
     0
  1
2
  0
DICTIONARY
  5
2D27
330
26
100
AcDbDictionary
280
     1
281
     1
  3
ADSK_XREC_LAYOUTTHUMBNAIL
360
2D28
  0
DICTIONARY
  5
2CC3
330
2CC2
100
AcDbDictionary
280
     1
281
     1
  3
ACAD_XREC_ROUNDTRIP
360
2FC0
  3
BUMPTILE
360
2CC5
  3
DIFFUSETILE
360
2CC4
  3
OPACITYTILE
360
2CC8
  3
REFLECTIONTILE
360
2CC7
  3
REFRACTIONTILE
360
2CC9
  3
SPECULARTILE
360
2CC6
  0
DICTIONARY
  5
2CBB
330
2CBA
100
AcDbDictionary
280
     1
281
     1
  3
ACAD_XREC_ROUNDTRIP
360
2FBF
  3
BUMPTILE
360
2CBD
  3
DIFFUSETILE
360
2CBC
  3
OPACITYTILE
360
2CC0
  3
REFLECTIONTILE
360
2CBF
  3
REFRACTIONTILE
360
2CC1
  3
SPECULARTILE
360
2CBE
  0
DICTIONARY
  5
2CCB
330
2CCA
100
AcDbDictionary
280
     1
281
     1
  3
ACAD_XREC_ROUNDTRIP
360
2FC1
  3
BUMPTILE
360
2CCD
  3
DIFFUSETILE
360
2CCC
  3
OPACITYTILE
360
2CD0
  3
REFLECTIONTILE
360
2CCF
  3
REFRACTIONTILE
360
2CD1
  3
SPECULARTILE
360
2CCE
  0
DICTIONARY
  5
2D6D
330
1E
100
AcDbDictionary
280
     1
281
     1
  3
ACAD_ROUNDTRIP_2008_TABLESTYLE_CELLSTYLEMAP
360
3142
  3
ACAD_XREC_ROUNDTRIP
360
3144
  0
DICTIONARY
  5
314F
330
2CD8
100
AcDbDictionary
280
     1
281
     1
  3
ACAD_XREC_ROUNDTRIP
360
3150
  0
DICTIONARY
  5
314D
330
2CD7
100
AcDbDictionary
280
     1
281
     1
  3
ACAD_XREC_ROUNDTRIP
360
314E
  0
DICTIONARY
  5
315B
330
2CDE
100
AcDbDictionary
280
     1
281
     1
  3
ACAD_XREC_ROUNDTRIP
360
315C
  0
DICTIONARY
  5
3163
330
2CE2
100
AcDbDictionary
280
     1
281
     1
  3
ACAD_XREC_ROUNDTRIP
360
3164
  0
DICTIONARY
  5
3155
330
2CDB
100
AcDbDictionary
280
     1
281
     1
  3
ACAD_XREC_ROUNDTRIP
360
3156
  0
DICTIONARY
  5
3159
330
2CDD
100
AcDbDictionary
280
     1
281
     1
  3
ACAD_XREC_ROUNDTRIP
360
315A
  0
DICTIONARY
  5
3173
330
2CEA
100
AcDbDictionary
280
     1
281
     1
  3
ACAD_XREC_ROUNDTRIP
360
3174
  0
DICTIONARY
  5
3161
330
2CE1
100
AcDbDictionary
280
     1
281
     1
  3
ACAD_XREC_ROUNDTRIP
360
3162
  0
DICTIONARY
  5
3145
330
2CD3
100
AcDbDictionary
280
     1
281
     1
  3
ACAD_XREC_ROUNDTRIP
360
3146
  0
DICTIONARY
  5
3147
330
2CD4
100
AcDbDictionary
280
     1
281
     1
  3
ACAD_XREC_ROUNDTRIP
360
3148
  0
DICTIONARY
  5
3149
330
2CD5
100
AcDbDictionary
280
     1
281
     1
  3
ACAD_XREC_ROUNDTRIP
360
314A
  0
DICTIONARY
  5
314B
330
2CD6
100
AcDbDictionary
280
     1
281
     1
  3
ACAD_XREC_ROUNDTRIP
360
314C
  0
DICTIONARY
  5
3153
330
2CDA
100
AcDbDictionary
280
     1
281
     1
  3
ACAD_XREC_ROUNDTRIP
360
3154
  0
DICTIONARY
  5
316F
330
2CE8
100
AcDbDictionary
280
     1
281
     1
  3
ACAD_XREC_ROUNDTRIP
360
3170
  0
DICTIONARY
  5
315F
330
2CE0
100
AcDbDictionary
280
     1
281
     1
  3
ACAD_XREC_ROUNDTRIP
360
3160
  0
DICTIONARY
  5
3171
330
2CE9
100
AcDbDictionary
280
     1
281
     1
  3
ACAD_XREC_ROUNDTRIP
360
3172
  0
DICTIONARY
  5
3157
330
2CDC
100
AcDbDictionary
280
     1
281
     1
  3
ACAD_XREC_ROUNDTRIP
360
3158
  0
DICTIONARY
  5
316D
330
2CE7
100
AcDbDictionary
280
     1
281
     1
  3
ACAD_XREC_ROUNDTRIP
360
316E
  0
DICTIONARY
  5
316B
330
2CE6
100
AcDbDictionary
280
     1
281
     1
  3
ACAD_XREC_ROUNDTRIP
360
316C
  0
DICTIONARY
  5
3165
330
2CE3
100
AcDbDictionary
280
     1
281
     1
  3
ACAD_XREC_ROUNDTRIP
360
3166
  0
DICTIONARY
  5
3167
330
2CE4
100
AcDbDictionary
280
     1
281
     1
  3
ACAD_XREC_ROUNDTRIP
360
3168
  0
DICTIONARY
  5
315D
330
2CDF
100
AcDbDictionary
280
     1
281
     1
  3
ACAD_XREC_ROUNDTRIP
360
315E
  0
DICTIONARY
  5
3151
330
2CD9
100
AcDbDictionary
280
     1
281
     1
  3
ACAD_XREC_ROUNDTRIP
360
3152
  0
DICTIONARY
  5
3169
330
2CE5
100
AcDbDictionary
280
     1
281
     1
  3
ACAD_XREC_ROUNDTRIP
360
316A
  0
XRECORD
  5
2D28
102
{ACAD_REACTORS
330
2D27
102
}
330
2D27
100
AcDbXrecord
280
     1
310
28000000000100006F0000000100080000000000006F0000000000000000000000010000000000000000000000000000FFFFFF000000000000000000000000000000000000000000000000000000000000000000330000006600000099000000CC000000FF00000000330000333300006633000099330000CC330000FF3300
310
0000660000336600006666000099660000CC660000FF66000000990000339900006699000099990000CC990000FF99000000CC000033CC000066CC000099CC0000CCCC0000FFCC000000FF000033FF000066FF000099FF0000CCFF0000FFFF000000003300330033006600330099003300CC003300FF003300003333003333
310
33006633330099333300CC333300FF33330000663300336633006666330099663300CC663300FF66330000993300339933006699330099993300CC993300FF99330000CC330033CC330066CC330099CC3300CCCC3300FFCC330000FF330033FF330066FF330099FF3300CCFF3300FFFF330000006600330066006600660099
310
006600CC006600FF00660000336600333366006633660099336600CC336600FF33660000666600336666006666660099666600CC666600FF66660000996600339966006699660099996600CC996600FF99660000CC660033CC660066CC660099CC6600CCCC6600FFCC660000FF660033FF660066FF660099FF6600CCFF6600
310
FFFF660000009900330099006600990099009900CC009900FF00990000339900333399006633990099339900CC339900FF33990000669900336699006666990099669900CC669900FF66990000999900339999006699990099999900CC999900FF99990000CC990033CC990066CC990099CC9900CCCC9900FFCC990000FF99
310
0033FF990066FF990099FF9900CCFF9900FFFF99000000CC003300CC006600CC009900CC00CC00CC00FF00CC000033CC003333CC006633CC009933CC00CC33CC00FF33CC000066CC003366CC006666CC009966CC00CC66CC00FF66CC000099CC003399CC006699CC009999CC00CC99CC00FF99CC0000CCCC0033CCCC0066CC
310
CC0099CCCC00CCCCCC00FFCCCC0000FFCC0033FFCC0066FFCC0099FFCC00CCFFCC00FFFFCC000000FF003300FF006600FF009900FF00CC00FF00FF00FF000033FF003333FF006633FF009933FF00CC33FF00FF33FF000066FF003366FF006666FF009966FF00CC66FF00FF66FF000099FF003399FF006699FF009999FF00CC
310
99FF00FF99FF0000CCFF0033CCFF0066CCFF0099CCFF00CCCCFF00FFCCFF0000FFFF0033FFFF0066FFFF0099FFFF00CCFFFF00FFFFFF00000000000D0D0D001A1A1A00282828003535350043434300505050005D5D5D006B6B6B00787878008686860093939300A1A1A100AEAEAE00BBBBBB00C9C9C900D6D6D600E4E4E400
310
F1F1F100FFFFFF000000000000000000000000000000000000000000000000000000000000000000000000000000000000000000000000000000000000000000000000000000000000000000000000000000000000000000000000000000000000000000F5F5F5F5F5F5F5F5F5F5F5F5F5F5F5F5F5F5F5F5F5F5F5F5F5F5F5
310
F5F5F5F5F5F5F5F5F5F5F5F5F5F5F5F5F5F5F5F5F5F5F5F5F5F5F5F5F5F5F5F5F5F5F5F5F5F5F5F5F5F5F5F5F5F5F5F5F5F5F5F5F5F5F5F5F5F5F5F5F5F5F5F5F5F5F5F5F5F5F5F5F5F5F5F5F5F5F5F5F5F5F5F5F5F5F5F5F5F5F5F5F5F5F5F5F5F5F5F5F5F5F5F5F5F5F5F5F5F5F5F5F5F5F5F5F5F5F5F5F5F5F5F5F50000
310
000000000000000000000000000000000000000000000000000000000000000000000000000000000000000000000000000000000000000000000000000000000000000000000000000000000000000000000000000000000000000000000000000000000000F5F5F5F5F5F5F5F5F5F5F5F5F5F5F5F5F5F5F5F5F5F5F5F5F5
310
F5F5F5F5F5F5F5F5F5F5F5F5F5F5F5F5F5F5F5F5F5F5F5F5F5F5F5F5F5F5F5F5F5F5F5F5F5F5F5F5F5F5F5F5F5F5F5F5F5F5F5F5F5F5F5F5F5F5F5F5F5F5F5F5F5F5F5F5F5F5F5F5F5F5F5F5F5F5F5F5F5F5F5F5F5F5F5F5F5F5F5F5F5F5F5F5F5F5F5F5F5F5F5F5F5F5F5F5F5F5F5F5F5F5F5F5F5F5F5F5F5F5F5F5F5F5F5
310
0000000000000000000000000000000000000000000000000000000000000000000000000000000000000000000000000000000000000000000000000000000000000000000000000000000000000000000000000000000000000000000000000000000000000000F5F5F5F5F5F5F5F5F5F5F5F5F5F5F5F5F5F5F5F5F5F5F5
310
F5F5F5F5F5F5F5F5F5F5F5F5F5F5F5F5F5F5F5F5F5F50000000000000000000000000000000000000000000000000000000000000000000000000000000000000000000000000000000000000000000000000000000000F5F5F5F5F5F5F5000000000000F5F5F500000000000000F5F5F5F5F5F50000000000000000000000
310
00F50000000000000000000000000000000000000000000000000000000000000000000000000000000000000000000000000000000000000000000000000000000000000000000000000000000000000000000000000000000000000000000000000000000000000000F5F5F5F5F5F5F5F5F5F5F5F5F5F5F5F5F5F5F5F5F5
310
F5F5F5F5F5F5F5F5F5F5F5F5F5F5F5F5F5F5F5F5F5F5F5F50000000000000000000000000000000000000000000000000000000000000000000000000000000000000000000000000000000000000000000000000000000000F5F5F5F5F5F5F5F5F5F5F5F5F5F5F5F5F5F5F5F5F5F5F5F5F5F5F5F5F5F5F5F5F5F5F5F5F5F5
310
F5F5F5F50000000000000000000000000000000000000000000000000000000000000000000000000000000000000000000000000000000000000000000000000000000000000000000000000000000000000000000000000000000000000000000000000000000000000000F5F5F5F5F5F5F5F5F5F5F5F5F5F5F5F5F5F5F5
310
F5F5F5F5F5F5F5F5F5F5F5F5F5F5F5F5F5F5F5F5F5F5F5F5F5F5F5F5000000000000000000000000000000000000000000000000000000000000000000000000000000000000000000000000000000000000000000000000000000F5F50000000000F5F5F5000000F5000000F5F500000000F50000F5F5F5F5F5F5F5F5F5F5
310
F5F5F5F5F5F50000000000000000000000000000000000000000000000000000000000000000000000000000000000000000000000000000000000000000000000000000000000000000000000000000000000000000000000000000000000000000000000000000000000000000F5F5F5F5F5F5F5F5F5F5F5F5F5F5F5F5F5
310
F5F5F5F5F5F5F5F5F5F5F5F5F5F5F5F5F5F5F5F5F5F5F5F5F5F5F5F5F5F5000000000000000000000000000000000000000000000000000000000000000000000000000000000000000000000000000000000000000000000000000000F5F5F5F5F5F500000000000000F5F5F5F5000000000000F5F5F5F5F5000000000000
310
00000000000000F50000000000000000000000000000000000000000000000000000000000000000000000000000000000000000000000000000000000000000000000000000000000000000000000000000000000000000000000000000000000000000000000000000000000000000F50000000000000000000000000000
310
0000000000000000000000000000000000000000000000000000000000000000000000000000000000000000000000000000000000000000000000000000000000000000000000000000000000000000000000000000000000000000000000F5F5F5F5F5F5F5F5F5F5F5F5F5F5F5F5F5F5F5F5F5F5F5F5F5F5F5F5F5F5F5F5
310
F5F5F5F5F5F5F5F5F5F50000000000000000000000000000000000000000000000000000000000000000000000000000000000000000000000000000000000000000000000000000000000000000000000000000000000000000000000000000000000000000000000000000000000000000F5000000000000000000000000
310
00000000000000000000000000000000000000000000000000000000000000000000000000000000000000000000000000000000000000000000000000000000000000000000000000000000000000000000000000000000000000000000000000F5F500000000000000000000000000000000000000000000000000000000
310
0000000000000000000000F50000000000000000000000000000000000000000000000000000000000000000000000000000000000000000000000000000000000000000000000000000000000000000000000000000000000000000000000000000000000000000000000000000000000000000F500000000000000000000
310
000000000000000000000000000000000000000000000000000000000000000000000000000000000000000000000000000000000000000000000000000000000000000000000000000000000000000000000000000000000000000000000000000000F5F50000000000000000F5F5F5F5F5F5F50000000000000000000000
310
00000000000000000000000000F50000000000000000000000000000000000000000000000000000000000000000000000000000000000000000000000000000000000000000000000000000000000000000000000000000000000000000000000000000000000000000000000000000000000000000F50000000000000000
310
0000000000000000000000000000000000000000000000000000000000000000000000000000000000000000000000000000000000000000000000000000000000000000000000000000000000000000000000000000000000000000000000000000000000F5F50000000000000000F5F5F5F5F5F5F5000000000000000000
310
000000000000000000000000000000F50000000000000000000000000000000000000000000000000000000000000000000000000000000000000000000000000000000000000000000000000000000000000000000000000000000000000000000000000000000000000000000000000000000000000000F5000000000000
310
00000000000000000000000000000000000000000000000000000000000000000000000000000000000000000000000000000000000000000000000000000000000000000000000000000000000000000000000000000000000000000000000000000000000000F5F5F5F5F5F5F5F500000000000000000000000000000000
310
0000000000000000000000000000000000F50000000000000000000000000000000000000000000000000000000000000000000000000000000000000000000000000000000000000000000000000000000000000000000000000000000000000000000000000000000000000000000000000000000000000000F500000000
310
000000000000000000000000000000000000000000000000000000000000000000000000000000000000000000000000000000000000000000000000000000000000000000000000000000000000000000000000000000000000000000000000000000000000000000F5F5F5F5F5F5F5F50000000000000000000000000000
310
00000000000000000000000000000000000000F50000000000000000000000000000000000000000000000000000000000000000000000000000000000000000000000000000000000000000000000000000000000000000000000000000000000000000000000000000000000000000000000000000000000000000F50000
310
000000000000F5F5F5F5F5F5F5F5F5F5F5F5F500D80000F5F5F5F5F5F5F5F5F5F5F5F5F5D800000000000000000000000000000000D800F5F5F5F5F5F5F5F5F5F5F5F5F50000D800F5F5F5F5F5F5F5F5F5F5F5F5F500000000000000000000000000000000000000000000F5F5F5F5F5F5F5F5F5F5F5F5F5F5F5F5F5F5F5F5
310
F5F5F5F5F5F5F5F5F5F5F5F5F5F5F5F5F5F5F5F5F5F50000000000000000000000000000000000000000000000000000000000000000000000000000000000000000000000000000000000000000000000000000000000000000000000000000000000000000000000000000000000000000000000000000000000000000F5
310
0000000000000000F50000000000000000000000F500D80000F50000000000000000000000F5D800000000000000000000000000000000D800F50000000000000000000000F50000D800F50000000000000000000000F50000F5F5F50000000000000000000000000000000000F5F5F5F5F5F5F5F5F5F5F5F5F5F5F5F5F5F5
310
F5F5F5F5F5F5F5F5F5F5F5F5F5F5F5F5F5F5F5F5F5F5F5F500000000000000000000000000000000000000000000000000000000000000000000000000000000000000000000000000000000000000000000000000000000000000000000000000000000000000000000000000000000000000000000000000000000000000
310
00F50000000000F5F5F5F5F5F5F5F5F5F5F5F5F5F5F5F5F5D8F5F5F5F5F5F5F5F5F5F5F5F5F5F5F5D8F5F5F5F5F5F5F5F5F5F5F5F5F5F5F5F5D8F5F5F5F5F5F5F5F5F5F5F5F5F5F5F5F5D8F5F5F5F5F5F5F5F5F5F5F5F5F5F5F5F5F5F5F50000000000000000000000000000000000F5F5F5F5F5F5F5F5F5F5F5F5F5F5F5F5
310
F5F5F5F5F5F5F5F5F5F5F5F5F5F5F5F5F5F5F5F5F5F5F5F5F5F50000000000000000000000000000000000000000000000000000000000000000000000000000000000000000000000000000000000000000000000000000000000000000000000000000000000000000000000000000000000000000000000000000000000
310
000000F50000000000F5F5F5F500000000000000000000F5F5F5F5F5F5F500000000000000000000F5F5F5F5F5F5F5F5F5F5F5F5F5F5F5F5F5F5F5F5F5F5F500000000000000000000F5F5F5F5F5F5F500000000000000000000F5F5D8F5F5F50000000000000000000000000000000000F5F5F5F5F5F5F5F5F5F5F5F5F5F5
310
F5F5F5F5F5F5F5F5F5F5F5F5F5F5F5F5F5F5F5F5F5F5F5F5F5F5F5F5000000000000000000000000000000000000000000000000000000000000000000000000000000000000000000000000000000000000000000000000000000000000000000000000000000000000000000000000000000000000000000000000000000
310
0000000000F50000000000F5F5000000000000000000000000000000D8000000000000000000000000000000D800000000000000000000000000000000D800000000000000000000000000000000D8000000000000000000000000000000F50000000000000000000000000000000000000000F5F5F5F5F5F5F500F5F5F5F5
310
F5F5F5F5F5F5F5F5F5F5F5F5F5F5F5F5F5F5F5F5F5F5F5F5F5F5F5F5F5F500000000000000000000000000000000000000000000000000000000000000000000000000000000000000000000000000000000000000000000000000000000000000000000000000000000000000000000000000000000000000000000000000
310
00000000000000F50000000000F5F5000000000000000000000000000000D800000000000000000000000000002DD800000000000000000000000000000000D800000000000000000000000000000000D8000000000000000000000000000000F50000000000000000000000000000000000000000F5F5F5F5F5F5F5F5F5F5
310
F5F5F5F5F5F5F5F5F5F5F5F5F5F5F5F5F5F5F5F5F5F5F5F5F5F5F5F5F5F5F5F50000000000000000000000000000000000000000000000000000000000000000000000000000000000000000000000000000000000000000000000000000000000000000000000000000000000000000000000000000000000000000000000
310
000000000000000000F50000000000F5F5000000000000000000000000000000D8000000000000000000000000002D2DD800000000000000000000000000000000D80000000000000000F5F5F5F5F5000000D8000000000000000000000000000000F50000000000000000000000000000000000000000000000000000F500
310
0000F5F5F5000000F50000F5F5F5F500000000F5000000F5F5F500000000000000F5000000000000000000000000000000000000000000000000000000000000000000000000000000000000000000000000000000000000000000000000000000000000000000000000000000000000000000000000000000000000000000
310
0000000000000000000000F50000000000F5F5000000000000000000000000000000D80000000000000000000000002D2D00D800000000000000000000000000000000D80000000000000000F5F5F5F5F5000000D8000000000000000000000000000000F50000000000000000000000000000000000000000000000000000
310
F5000000000000000000F500000000000000000000F5000000F5F5F500000000000000F500000000000000000000000000000000000000000000000000000000000000000000000000000000000000000000000000000000000000000000000000000000000000000000000000000000000000000000000000000000000000
310
00000000000000000000000000F50000000000F5F5000000000000000000000000000000D800002D2D000000000000002D2D0000D800000000000000000000000000000000D8000000C3BEBEBEBEBEBEBEBE2D2D0000D8000000000000000000000000000000F5000000000000000000000000000000000000000000000000
310
0000F5F5F5F5F5F5F5F5F5F5F5F5F5F5F5F5F5F5F5F5F5F5F5F5F5F5F5F5F5F5F5F5F5F5F5F50000000000000000000000000000000000000000000000000000000000000000000000000000000000000000000000000000000000000000000000000000000000000000000000000000000000000000000000000000000000
310
000000000000000000000000000000F50000000000F5F5000000000000000000000000000000D80000002D2D00000000002D2D000000D800000000000000000000000000000000D8000000C3BEBEBEBEBEBEBEDCDCDC0000D8000000000000000000000000000000F500000000000000000000000000000000000000000000
310
00000000F5000000F5F500000000F500F5F5F5F50000000000F50000F5F5F5F5F5000000000000F5000000000000000000000000000000000000000000000000000000000000000000000000000000000000000000000000000000000000000000000000000000000000000000000000000000000000000000000000000000
310
0000000000000000000000000000000000F50000000000F5F5000000000000000000000000000000D8000000002D2D0000002D2D00000000D8000000000000C3F5F5F5F5F5F5DCF5F5F5F5F5F5F5F5F5F5F5F5F5F5F5F5F5F5F5F5F5BEDCDCDCDCDCDCBEDC0000000000F50000000000000000000000000000000000000000
310
000000000000F5F5F5F5F5F5F5F5F5F5F5F5F5F5F5F5F5F5F5F5F5F5F5F5F5F5F5F5F5F5F5F5F5F5F5F500000000000000000000000000000000000000000000000000000000000000000000000000000000000000000000000000000000000000000000000000000000000000000000000000000000000000000000000000
310
00000000000000000000000000000000000000F50000000000F5F5000000000000000000000000000000D800000000002D2D002D2D0000000000D8000000000000C3F5F5F5F5F5F5F5F5F5F5F5F5F5F5F5F5F5F5F5F5F5F5F5F5F5F5F5F5BEBEBEBEBEF5F5F5F5F500000000F5000000000000000000000000000000000000
310
0000000000000000F5000000F5F500000000F500F5F5F5F50000000000F5000000F5F5F5F5000000000000F50000000000000000000000000000000000000000000000000000000000000000000000000000000000000000000000000000000000000000000000000000000000000000000000000000000000000000000000
310
000000000000000000000000000000000000000000F50000000000F5F5000000000000000000000000000000D80000000000002D2D2D000000000000D8000000002D00F5F50000000000000000D800000000000000000000000000000000D8000000000000F5F5F5F5F500000000F500000000000000000000000000000000
310
00000000000000000000F5000000F5F500000000F500000000000000000000F5000000F5F5F5F5000000000000F5000000000000000000000000000000000000000000000000000000000000000000000000000000000000000000000000000000000000000000000000000000000000000000000000000000000000000000
310
0000000000000000000000000000000000000000000000F50000000000F5F5000000000000000000000000000000D8000000000000002D2D000000000000D80000002D2D2DF5F50000000000000000D800000000000000000000000000000000D8000000000000000000000000000000F50000000000000000000000000000
310
000000000000000000000000F5F5F5F5F5F5F5F5F5F5F5F5F5F5F5F5F5F5F5F5F5F5F5F5F5F5F5F5F5F5F5F5F5F5F5F500000000000000000000000000000000000000000000000000000000000000000000000000000000000000000000000000000000000000000000000000000000000000000000000000000000000000
310
00000000000000000000000000000000000000000000000000F50000000000F5F5000000000000000000000000000000D800000000000000002D2D0000000000D800002D2D002D2DF50000000000000000D800000000000000000000000000000000D8000000000000000000000000000000F5000000000000000000000000
310
0000000000000000000000000000F5000000F5F500000000F500F5F5F5F50000000000F5000000F5F5F5F5000000000000F50000000000000000000000000000000000000000000000000000000000000000000000000000000000000000000000000000000000000000000000000000000000000000000000000000000000
310
000000000000000000000000000000000000000000000000000000F50000000000F5F5000000000000000000000000000000D80000000000000000002D2D00000000D8002D2D0000002D2D0000000000000000D800000000000000000000000000000000D8000000000000000000000000000000F500000000000000000000
310
00000000000000000000000000000000F5000000000000000000F500000000000000000000F500000000000000000000000000F5000000000000000000000000000000000000000000000000000000000000000000000000000000000000000000000000000000000000000000000000000000000000000000000000000000
310
0000000000000000000000000000000000000000000000000000000000F50000000000F5F5000000000000000000000000000000D8000000000000000000002D2D000000D82D2D00000000F52D2D00000000000000D800000000000000000000000000000000D8000000000000000000000000000000F50000000000000000
310
000000000000000000000000000000000000F5F5F5F5F5F5F5F5F5F5F5F5F5F5F5F5F5F5F5F5F5F5F5F5F5F5F5F5F5F5F5F5F5F5F5F500000000000000000000000000000000000000000000000000000000000000000000000000000000000000000000000000000000000000000000000000000000000000000000000000
310
00000000000000000000000000000000000000000000000000000000000000F50000000000F5F5000000000000000000000000000000D800000000000000000000002D0000002D2D2D00000000F5F52D2D000000000000D800000000000000000000000000000000D8000000000000000000000000000000F5000000000000
310
0000000000000000000000000000000000000000F5000000F5F500000000F500F5F5F5F50000000000F50000F5F5F5F5F5000000000000F50000000000000000000000000000000000000000000000000000000000000000000000000000000000000000000000000000000000000000000000000000000000000000000000
310
000000000000000000000000000000000000000000000000000000000000000000F50000000000F5F500DCBEDCDCDCDCDCDCF5F5F5F5F5F5F5F5F5F5F5F5F5F5F5F5F5F5F5F5F52D2DF52D2DF5F5C3C3F5002D2D0000000000D800000000000000000000000000000000D8000000000000000000000000000000F500000000
310
00000000000000000000000000000000000000000000F5000000000000000000F500000000000000000000F500000000000000000000000000F5000000000000000000000000000000000000000000000000000000000000000000000000000000000000000000000000000000000000000000000000000000000000000000
310
0000000000000000000000000000000000000000000000000000000000000000000000F50000000000F5F5F5F5F5F5BEBEBEBEBEF5F5F5F5F5F5F5F5F5F5F5F5F5F5F5F5F5F5F52D2D2DF5F5F52D2DF5C3F5F500002D0000000000D800000000000000000000000000000000D8000000000000000000000000000000F50000
310
000000000000000000000000000000000000000000000000F5F5F5F5F5F5F5F5F5F5F5F5F5F5F5F5F5F5F5F5F5F5F5F5F5F5F5F5F5F5F5F5F5F5F5F500000000000000000000000000000000000000000000000000000000000000000000000000000000000000000000000000000000000000000000000000000000000000
310
00000000000000000000000000000000000000000000000000000000000000000000000000F50000000000F5F5F5F5F5F500000000000000000000DCDCDCBEBEBEBEBEBEBEC3000000002D2DD80000002D2D00F5F50000000000000000D800000000000000000000000000000000D8000000000000000000000000000000F5
310
0000000000000000000000000000000000000000000000000000F5F5F5F5F5F5F5F5F5F5F5F5F5F5F5F5F5F5F5F500F5F5F5F5F5F5F5F5F5F5F5F5F5F5F50000000000000000000000000000000000000000000000000000000000000000000000000000000000000000000000000000000000000000000000000000000000
310
000000000000000000000000000000000000000000000000000000000000000000000000000000F50000000000F5F500000000000000000000000000F5F5F5F5000000000000000000000000002D2D000000002D00F5F50000000000000000D800000000000000000000000000000000D80000000000000000000000000000
310
00F50000000000000000000000000000000000000000000000000000F5000000000000000000F500000000000000000000F5F5F5F5F5F5F5F5F5F5F5F5F500F5000000000000000000000000000000000000000000000000000000000000000000000000000000000000000000000000000000000000000000000000000000
310
0000000000000000000000000000000000000000000000000000000000000000000000000000000000F50000000000F5F500000000000000000000000000F5F5F5F500000000000000000000000000002D2D0000000000F5F50000000000000000D800000000000000000000000000000000D8000000000000000000000000
310
000000F50000000000000000000000000000000000000000000000000000F5000000000000000000F500000000000000000000F500000000000000000000000000F500000000000000000000000000000000000000000000000000000000000000000000000000000000000000000000000000000000000000000000000000
310
00000000000000000000000000000000000000000000000000000000000000000000000000000000000000F50000000000F5F5000000000000000000000000000000D8000000000000000000000000000000D82D2D00000000F5F5000000000000002DD800000000000000000000000000000000D800000000000000000000
310
0000000000F50000000000000000000000000000000000000000000000000000F5F5F5F5F5F5F5F5F5F5F5F5F5F5F5F5F5F5F5F5F5F5F5F5F5F5F5F5F5F5F5F5F5F5F5F50000000000000000000000000000000000000000000000000000000000000000000000000000000000000000000000000000000000000000000000
310
000000000000000000000000000000000000000000000000000000000000000000000000000000000000000000F50000000000F5F5000000000000000000000000000000D8000000000000000000000000000000D8002D2D000000F5F50000000000002D2DD800000000000000000000000000000000D80000000000000000
310
00000000000000F50000000000000000000000000000000000000000000000000000F5F5F5F5F5F5F5F5F5F5F5F5F5F5F5F5F5F5F5F5F5F5F5F5F5F5F5F5F5F5F5F5F5F500F5000000000000000000000000000000000000000000000000000000000000000000000000000000000000000000000000000000000000000000
310
0000000000000000000000000000000000000000000000000000000000000000000000000000000000000000000000F50000000000F5F5000000000000000000000000000000D8000000000000000000000000000000D800002D2D0000282800000000002D2D00D800000000000000000000000000000000D8000000000000
310
000000000000000000F50000000000000000000000000000000000000000000000000000F500000000000000000000000000000000000000000000000000000000000000000000F500000000000000000000000000000000000000000000000000000000000000000000000000000000000000000000000000000000000000
310
00000000000000000000000000000000000000000000000000000000000000000000000000000000000000000000000000F50000000000F5F5000000000000000000000000000000D8000000000000000000000000000000D80000002D00002828000000002D2D0000D800000000000000000000000000000000D800000000
310
0000000000000000000000F500F5F50000000000000000000000000000000000000000000000C3C3C3C3C3C3C3C3C3C3C3C3C3C3C3C3C3C3C3C3C3C3C3F5F5F5F5F5F5F5F5F5F5F5F5F50000000000000000000000000000000000000000000000000000000000000000000000000000000000000000000000000000000000
310
000000000000000000000000000000000000000000000000000000000000000000000000000000000000000000000000000000F50000D8D8D8D8D8D8D8D8D8D8D8D8D8D8D8D8D8D8D8D8D8D8D8D8D8D8D8D8D8D8D8D8D8D8D8D8D8D8D8D8D8D8D82828D8D8D82D2DD8D8D8D8D8D8D8D8D8D8D8D8D8D8D8D8D8D8D8D8D8D8D8
310
D8D8D8D8D8D8D8D8D8D8D8D8D8D8D8F5F50000000000000000000000000000000000000000000000C3C3C3C3C3C3C3C3C3C3C3C3C3C3C3C3C3C3C3C3C3C3C3000000000000000000000000F5000000000000000000000000000000000000000000000000000000000000000000000000000000000000000000000000000000
310
0000000000000000000000000000000000000000000000000000000000000000000000000000000000000000000000000000000000F50000000000F5F5000000000000000000000000000000D8000000000000000000000000000000D8000000000000282800002D2D00000000D800000000000000000000000000000000D8
310
000000000000000000000000000000F500000000000000000000000000000000000000000000000000002828282828282828282828282828282828282828282828280000000000000000000000F500000000000000000000000000000000000000000000000000000000000000000000000000000000000000000000000000
310
00000000000000000000000000000000000000000000000000000000000000000000000000000000000000000000000000000000000000F50000000000F5F5000000000000000000000000000000D8F5F5F5F50000000000000000000000D80000000000002828282D2D28282828282D2D2D2828DC28282828282828282828
310
28DC28282828DC00000000000000000000F50000000000000000000000000000000000000000000000000000F5F5F5F5F5F5F5F5F5F5F5F5F5F5F5F5F5F5F5F5F5F5F5F5F5F5F50000000000000000F50000000000000000000000000000000000000000000000000000000000000000000000000000000000000000000000
310
000000000000000000000000000000000000000000000000000000000000000000000000000000000000000000000000000000000000000000F50000000000F5F5000000000000000000000000000000D8F5F5F5F50000000000000000000000D8000000000000C32D2D2D2D2D2D2D2D2D2D2D2D2828282828282828282828
310
28282828282828282800000000000000000000F50000000000000000000000000000000000000000000000000000F5F5F5F5F5F5F5F5F5F5F5F5F5F5F5F5F5F5F5F5F5F5F5F5F5F5F50000000000000000F5000000000000000000000000000000000000000000000000000000000000000000000000000000000000000000
310
0000000000000000000000000000000000000000000000000000000000000000000000000000000000000000000000000000000000000000000000F50000000000F5F5000000000000000000000000000000D800002D2DBEBEBEBEBEBEBEC3000000D800000000000000002D2D2D2D2D000000D82D2D000000000000000000
310
0000000000D8000000282800000000000000000000F50000000000000000000000000000000000000000000000000000BEBEBEBEBEBEBEBEBEBEBEBEBEBEBEBEBEBEBEBEBEBEBEBEBEBE000000000000000000F500000000000000000000000000000000000000000000000000000000000000000000000000000000000000
310
00000000000000000000000000000000000000000000000000000000000000000000000000000000000000000000000000000000000000000000000000F50000000000F5F5000000000000000000000000000000D80000DCDCDCBEBEBEBEBEBEC3000000D800000000000000000000000000000000D82D2D00000000002D00
310
00000000000000D8000000282800000000000000000000F500000000000000000000000000000000000000000000000000002D2D2D2D2D2D2D2D2D2D2D2D2D2D000000000000000000000000000000000000000000F50000000000000000000000000000000000000000000000000000000000000000000000000000000000
310
000000000000000000000000000000000000000000000000000000000000000000000000000000000000000000000000000000000000000000000000000000F50000000000F5F5000000000000000000000000000000C3F5F5F5F5F5F5F5F5F5F5C3C3F5F5F5F5F5F5F5DCDCDCDCDCF5F5F5F5F5F5F5F5C32DF5F5F5F5F52D
310
2DDCDCDCDCDCF5F5F5F5F5F5C3282800000000000000000000F500000000000000000000000000000000000000000000000000002D2D2D2D2D2D2D2D2D2D2D2D2D2D000000000000000000000000000000000000000000F5000000000000000000000000000000000000000000000000000000000000000000000000000000
310
0000000000000000000000000000000000000000000000000000000000000000000000000000000000000000000000000000000000000000000000000000000000F50000000000F5F5000000000000000000000000000000F5F5F5F5F5F5F5F5F5F5F5C3C3F5F5F5F5F5F5F5F5F5F5F5F5F5F5F5F5F5F5F5F5C32DF5F5F5F5
310
2D2DF5F5F5F5F5F5F5F5F5F5F5F5C3C32800000000000000000000F50000000000000000000000000000000000000000000000000000F5F5F5F5F5F50000000000000000000000000000000000000000000000000000000000F500000000000000000000000000000000000000000000000000000000000000000000000000
310
00000000000000000000000000000000000000000000000000000000000000000000000000000000000000000000000000000000000000000000000000000000000000F50000000000F5F5000000000000000000000000000000F5F50000000000000000000000000000D800000000000000DCDCDCBEBEBEBEBEBEC32D0000
310
002D2D00000000000000000000D8000000282800000000000000000000F50000000000000000000000000000000000000000000000000000F5F5F5F5F5F50000000000000000000000000000000000000000000000000000000000F50000000000000000000000000000000000000000000000000000000000000000000000
310
000000000000000000000000000000000000000000000000000000000000000000000000000000000000000000000000000000000000000000000000000000000000000000F50000000000F5F5000000000000000000000000000000F5F50000000000000000000000000000D800000000000000F5F5F5BEBEBEBEBEBEC32D
310
00002D2D000000000000002D000000D8000000282800000000000000000000F500000000000000000000000000000000000000000000000000000000000000000000000000000000000000000000000000000000000000000000000000F5000000000000000000000000000000000000000000000000000000000000000000
310
0000000000000000000000000000000000000000000000000000000000000000000000000000000000000000000000000000000000000000000000000000000000000000000000F50000000000F5F500BEBEBEBEBEBEBEF5F5F5F5F5F5F5F5F50000000000000000000000000000D800000000000000F5F5F5000000000000
310
2D2D002D2D000000000000002D2D000000D8000000282800000000000000000000F500000000000000000000000000000000000000000000000000000000000000000000000000000000000000000000000000000000000000000000000000F500000000000000000000000000000000000000000000000000000000000000
310
00000000000000000000000000000000000000000000000000000000000000000000000000000000000000000000000000000000000000000000000000000000000000000000000000F50000000000F5F5DCBEDCDCDCDCDCDCF5F5F5F5F5F5F5F5DC0000000000000000000000000000D80000000000000000000000000000
310
00002D2D2D2D000000000000002D2D00000000D8000000282800000000000000000000F500000000000000000000000000000000000000000000000000000000000000000000000000000000000000000000000000000000000000000000000000F50000000000000000000000000000000000000000000000000000000000
310
000000000000000000000000000000000000000000000000000000000000000000000000000000000000000000000000000000000000000000000000000000000000000000000000000000F50000000000F5F5F5F5F5000000000000000000000000D8000000000000000000000000000000D8000000000000000000000000
310
000000002D2D2D000000000000002D2D0000000000D800000028280000000000000000F5F5F5F5000000000000000000000000000000000000000000000000000000000000000000000000000000000000000000000000000000000000000000000000F5000000000000000000000000000000000000000000000000000000
310
0000000000000000000000000000000000000000000000000000000000000000000000000000000000000000000000000000000000000000000000000000000000000000000000000000000000F50000000000F5F5F5F5F5000000000000000000000000D8000000000000000000000000000000D800000000000000000000
310
000000000000D82D000000000000002D2D2D0000000000D800000028280000000000000000F500F500000000000000000000000000000000000000000000000000000000000000000000000000000000000000000000000000000000000000000000000000F500000000000000000000000000000000000000000000000000
310
00000000000000000000000000000000000000000000000000000000000000000000000000000000000000000000000000000000000000000000000000000000000000000000000000000000000000F50000000000F5F5000000000000000000000000000000D8000000000000000000000000000000D80000000000000000
310
0000000000000000D8000000000000002D2D002D2D00000000D80000002828282828282828D628F5CAF500000000000000000000000000000000000000000000000000000000000000000000000000000000000000000000000000000000000000000000000000F50000000000000000000000000000000000000000000000
310
000000000000000000000000000000000000000000000000000000000000000000000000000000000000000000000000000000000000000000000000000000000000000000000000000000000000000000F50000000000F5F5000000000000000000000000000000D8000000000000000000000000000000D8000000000000
310
00000000000000000000D80000000000002D2D0000002D2D000000D8000000C3282828282828282800CA00F500000000000000000000000000000000000000000000000000000000000000000000000000000000000000000000000000000000000000000000000000F5000000000000000000000000000000000000000000
310
0000000000000000000000000000000000000000000000000000000000000000000000000000000000000000000000000000000000000000000000000000000000000000000000000000000000000000000000F500F5F5F5F5F5F5000000000000000000000000000000D8000000000000000000000000000000D800000000
310
000000000000000000000000D8000000002D2D2D00000000002D2D0000D8000000000000000000000000000000F500000000000000000000000000000000000000000000000000000000000000000000000000000000000000000000000000000000000000000000000000F500000000000000000000000000000000000000
310
00000000000000000000000000000000000000000000000000000000000000000000000000000000000000000000000000000000000000000000000000000000000000000000000000000000000000000000000000F500F500000000F5000000000000000000000000000000D8000000000000000000000000000000D80000
310
0000000000000000000000000000D800000000002D2D0000000000002D2D00D8000000000000000000000000000000F500000000000000000000000000000000000000000000000000000000000000000000000000000000000000000000000000000000000000000000000000F50000000000000000000000000000000000
310
000000000000000000000000000000000000000000000000000000000000000000000000000000000000000000000000000000000000000000000000000000000000000000000000000000000000000000000000000000F500F500000000F5000000000000000000000000000000D8000000000000000000000000000000D8
310
00000000000000000000000000000000D80000000000002D2D0000000000002D2DD8000000000000000000000000000000F500000000000000000000000000000000000000000000000000000000000000000000000000000000000000000000000000000000000000000000000000F5000000000000000000000000000000
310
0000000000000000000000000000000000000000000000000000000000000000000000000000000000000000000000000000000000000000000000000000000000000000000000000000000000000000000000000000000000F500F500000000F5000000000000000000000000000000D80000000000000000000000000000
310
00D800000000000000000000000000000000D8000000000000002D2D00000000002D2DD8000000000000000000000000000000F500000000000000000000000000000000000000000000000000000000000000000000000000000000000000000000000000000000000000000000000000F500000000000000000000000000
310
00000000000000000000000000000000000000000000000000000000000000000000000000000000000000000000000000000000000000000000000000000000000000000000000000000000000000000000000000000000000000F500F500000000F5000000000000000000000000000000D8000000000000000000000000
310
000000D800000000000000000000000000000000D800000000000000002D2D000000002D2DD80000000000002D0000000000000000F500000000000000000000000000000000000000000000000000000000000000000000000000000000000000000000000000000000000000000000000000F50000000000000000000000
310
000000000000000000000000000000000000000000000000000000000000000000000000000000000000000000000000000000000000000000000000000000000000000000000000000000000000000000000000000000000000000000F500F500000000F5000000000000000000000000000000D800000000000000000000
310
0000000000D800000000000000000000000000000000D80000000000000000002D2D0000002D2DD800000000002D2D2D00000000000000F500000000000000000000000000000000000000000000000000000000000000000000000000000000000000000000000000000000000000000000000000F5000000000000000000
310
0000000000000000000000000000000000000000000000000000000000000000000000000000000000000000000000000000000000000000000000000000000000000000000000000000000000000000000000000000000000000000000000F500F500000000F5000000000000000000000000000000D80000000000000000
310
00000000000000D800000000000000000000000000000000D8000000000000000000002D2D2D2D2D00D8000000002D2D002D2D000000000000F500000000000000000000000000000000000000000000000000000000000000000000000000000000000000000000000000000000000000000000000000F500000000000000
310
00000000000000000000000000000000000000000000000000000000000000000000000000000000000000000000000000000000000000000000000000000000000000000000000000000000000000000000000000000000000000000000000000F500F500000000F5000000000000000000000000000000D8000000000000
310
000000000000000000D800000000000000000000000000000000D800000000000000000000002D2D2D0000D80000002D2D0000002D2D0000000000F500000000000000000000000000000000000000000000000000000000000000000000000000000000000000000000000000000000000000000000000000F50000000000
310
000000000000000000000000000000000000000000000000000000000000000000000000000000000000000000000000000000000000000000000000000000000000000000000000000000000000000000000000000000000000000000000000000000F500F500000000F5000000000000000000000000000000D800000000
310
0000000000000000000000D800000000000000000000000000000000D800000000000000000000000000000000D800002D2D00000000002D2D00000000F500000000000000000000000000000000000000000000000000000000000000000000000000000000000000000000000000000000000000000000000000F5000000
310
0000000000000000000000000000000000000000000000000000000000000000000000000000000000000000000000000000000000000000000000000000000000000000000000000000000000000000000000000000000000000000000000000000000000F500F500000000F5000000000000000000000000000000D80000
310
00000000000000000000000000D800000000000000000000000000000000D800000000000000000000000000000000D8002D2D000000000000002D2D000000F500000000000000000000000000000000000000000000000000000000000000000000000000000000000000000000000000000000000000000000000000F500
310
00000000000000000000000000000000000000000000000000000000000000000000000000000000000000000000000000000000000000000000000000000000000000000000000000000000000000000000000000000000000000000000000000000000000000F500F500000000F5000000000000000000000000000000D8
310
000000000000000000000000000000D800000000000000000000000000000000D800000000000000000000000000000000D82D2D0000000000000000002D2D0000F500000000000000000000000000000000000000000000000000000000000000000000000000000000000000000000000000000000000000000000000000
310
F50000000000000000000000000000000000000000000000000000000000000000000000000000000000000000000000000000000000000000000000000000000000000000000000000000000000000000000000000000000000000000000000000000000000000000F500F5000000F5F50000000000000000000000000000
310
00D8000000000000000000000000000000D800000000000000000000000000000000D80000000000000000000000000000002D2D2D00000000000000000000002D0000F50000000000000000000000000000000000000000000000000000000000000000000000000000000000000000000000000000000000000000000000
310
0000F50000000000000000000000000000000000000000000000000000000000000000000000000000000000000000000000000000000000000000000000000000000000000000000000000000000000000000000000000000000000000000000000000000000000000000F500F5F5F5F5F5F5000000000000000000000000
310
000000D8000000000000000000000000000000D800000000000000000000000000000000D8000000000000000000000000000000002D000000000000000000000000000000F5000000000000000000000000000000000000000000000000000000000000000000000000000000000000000000000000000000000000000000
310
00000000F50000000000000000000000000000000000000000000000000000000000000000000000000000000000000000000000000000000000000000000000000000000000000000000000000000000000000000000000000000000000000000000000000000000000000000F50000000000F5F500000000000000000000
310
0000000000D8000000000000000000000000000000D800000000000000000000000000000000D800000000000000000000000000000000D800000000000000000000000000002DF500000000000000000000000000000000000000000000000000000000000000000000000000000000000000000000000000000000000000
310
000000000000F50000000000000000000000000000000000000000000000000000000000000000000000000000000000000000000000000000000000000000000000000000000000000000000000000000000000000000000000000000000000000000000000000000000000000000F50000000000F5F50000000000000000
310
00000000000000D8000000000000000000000000000000D800000000000000000000000000000000D800000000000000000000000000000000D800000000000000000000000000002DF50000000000000000000000000000000000000000000000000000000000000000000000000000000000000000000000000000000000
310
0000000000000000F50000000000000000000000000000000000000000000000000000000000000000000000000000000000000000000000000000000000000000000000000000000000000000000000000000000000000000000000000000000000000000000000000000000000000000F50000000000F5F5000000000000
310
000000000000000000D8000000000000000000000000000000D800000000000000000000000000000000D800000000000000000000000000000000D8000000000000000000000000002D2DF5000000000000000000000000000000000000000000000000000000000000000000000000000000000000000000000000000000
310
00000000000000000000F50000000000000000000000000000000000000000000000000000000000000000000000000000000000000000000000000000000000000000000000000000000000000000000000000000000000000000000000000000000000000000000000000000000000000000F50000000000F5F500000000
310
0000000000000000000000D8000000000000000000000000000000D800000000000000000000000000000000D800000000000000000000000000000000D8000000000000000000000000002D2DF500000000000000000000000000000000000000000000000000000000000000000000000000000000000000000000000000
310
000000000000000000000000F50000000000000000000000000000000000000000000000000000000000000000000000000000000000000000000000000000000000000000000000000000000000000000000000000000000000000000000000000000000000000000000000000000000000000000F50000000000F5F50000
310
00000000000000000000000000D8000000000000000000000000000000D800000000000000000000000000000000D800000000000000000000000000000000D8000000C3F5F5F5F5F5F5F5F5C32D2DF50000000000000000000000000000000000000000000000000000000000000000000000000000000000000000000000
310
0000000000000000000000000000F50000000000000000000000000000000000000000000000000000000000000000000000000000000000000000000000000000000000000000000000000000000000000000000000000000000000000000000000000000000000000000000000000000000000000000F50000000000F5F5
310
000000000000000000000000000000D8000000000000000000000000000000D800000000000000000000000000000000D800000000000000000000000000000000D8000000F5F5000000000000F52D2D2D2D000000000000000000000000000000000000000000000000000000000000000000000000000000000000000000
310
00000000000000000000000000000000F50000000000000000000000000000000000000000000000000000000000000000000000000000000000000000000000000000000000000000000000000000000000000000000000000000000000000000000000000000000000000000000000000000000000000000F50000000000
310
F5F5000000000000000000000000000000D8000000000000000000000000000000D800000000000000000000000000000000D800000000000000000000000000000000D8000000F5F5000000000000F52D2D002D2D000000000000000000000000000000000000000000000000000000000000000000000000000000000000
310
000000000000000000000000000000000000F50000000000000000000000000000000000000000000000000000000000000000000000000000000000000000000000000000000000000000000000000000000000000000000000000000000000000000000000000000000000000000000000000000000000000000F5000000
310
0000F5F5000000000000000000000000000000D8000000000000000000000000000000D800000000000000000000000000000000D800000000000000000000000000000000D8000000F5F5000000000000F52D0000F52D2D000000000000000000000000000000000000000000000000000000000000000000000000000000
310
0000000000000000000000000000000000000000F50000000000000000000000000000000000000000000000000000000000000000000000000000000000000000000000000000000000000000000000000000000000000000000000000000000000000000000000000000000000000000000000000000000000000000F500
310
00000000F5F5000000000000000000000000000000D8000000000000000000000000000000D800000000000000000000000000000000D800000000000000000000000000000000D8000000F5F50000000000002D2D0000F5002D2D000000000000000000000000000000000000000000000000000000000000000000000000
310
00000000000000000000000000000000000000000000F50000000000000000000000000000000000000000000000000000000000000000000000000000000000000000000000000000000000000000000000000000000000000000000000000000000000000000000000000000000000000000000000000000000000000000
310
F50000000000F5F5000000000000000000000000000000D8000000000000000000000000000000D800000000000000000000000000000000D800000000000000000000000000000000D8000000F5F50000000000002D2D0000F500002D2D2D2D2D2D0000000000000000000000000000000000000000000000000000000000
310
000000000000000000000000000000000000000000000000F5000000000000000000000000000000000000000000000000000000000000000000000000000000000000000000000000000000000000000000000000000000000000000000000000000000000000000000000000000000000000000000000000000000000000
310
0000F50000000000F5F5000000000000000000000000000000D8000000000000000000000000000000D800000000000000000000000000000000D800000000000000000000000000000000D8000000F5F50000000000002DF50000F5002D2D2D2D2D0000000000000000000000000000000000000000000000000000000000
310
0000000000000000000000000000000000000000000000000000F500000000000000000000000000000000000000000000000000000000000000000000000000000000000000000000000000000000000000000000000000000000000000000000000000000000000000000000000000000000000000000000000000000000
310
00000000F50000000000F5F5000000000000000000000000000000D8000000000000000000000000000000D800000000000000000000000000000000D800000000000000000000000000000000D8000000F5F500000000002D2DF5002D2D2D2D2D000000000000000000000000000000000000000000000000000000000000
310
00000000000000000000000000000000000000000000000000000000F50000000000000000000000000000000000000000000000000000000000000000000000000000000000000000000000000000000000000000000000000000000000000000000000000000000000000000000000000000000000000000000000000000
310
000000000000F50000000000F5F5000000000000000000000000000000D8000000000000000000000000000000D800000000000000000000000000000000D800000000000000000000000000000000D800000028DC0000000000002D2D2D2D2D00000000000000000000000000000000000000000000000000000000000000
310
000000000000000000000000000000000000000000000000000000000000F5000000000000000000000000000000000000000000000000000000000000000000000000000000000000000000000000000000000000000000000000000000000000000000000000000000000000000000000000000000000000000000000000
310
0000000000000000F50000000000F5F5000000000000000000000000000000D8000000000000000000000000000000D800000000000000000000000000000000D800000000000000000000000000000000D800000028280000000000002DF50000F50000000000000000000000000000000000000000000000000000000000
310
0000000000000000000000000000000000000000000000000000000000000000F500000000000000000000000000000000000000000000000000000000000000000000000000000000000000000000000000000000000000000000000000000000000000000000000000000000000000000000000000000000000000000000
310
00000000000000000000F50000000000F5F5000000000000000000000000000000D8000000000000000000000000000000D800000000000000000000000000000000D800000000000000000000000000000000D80000002828000000000000BEBE0000F50000000000000000000000002D0000000000000000000000000000
310
00000000000000000000000000000000000000000000000000000000000000000000F50000000000000000000000000000000000000000000000000000000000000000000000000000000000000000000000000000000000000000000000000000000000000000000000000000000000000000000000000000000000000000
310
000000000000000000000000F50000000000F5F50000002DBEBEBEBEBEBEBEF5F5F5F5F5F5F5F5F5F5F5F5F5F5F5F5F5F5F5F5F5F5F5F5F5F5F5F5F5F5F5F5F5F5C3C3C3C300000000000000000000000000000000D80000002828000000000000BEBE0000F500000000000000000000002D2D000000000000000000000000
310
000000000000000000000000000000000000000000000000000000000000000000000000F5000000000000000000000000000000000000000000000000000000000000000000000000000000000000000000000000000000000000000000000000000000000000000000000000000000000000000000000000000000000000
310
0000000000000000000000000000F50000000000F5F500F5F5F5F5DCDCDCDCDCDCF5F5F5F5F5F5F5F5F5F5F5F5F5F5F5F5F5F5F5F5F5F5F5F5F5F5F5F5F5F5F5F5F5F5C3C3F5F500000000000000000000000000000000D80000002828000000000000BEDC0000F5000000000000000000002D2D0000000000000000000000
310
0000000000000000000000000000000000000000000000000000000000000000000000000000F500000000000000000000000000000000000000000000000000000000000000000000000000000000000000000000000000000000000000000000000000000000000000000000000000000000000000000000000000000000
310
00000000000000000000000000000000F50000000000F5F500F5F5F5F500000000000000000000D82D2D28BEBEBEBEBEBEC30000000000D800000000002D2D28BEBEBEBEBEBEBEF5F500000000000000000000000000000000D80000002828000000000000BEDC0000F52D2D000000000000002D2D00000000000000000000
310
00000000000000000000000000000000000000000000000000000000000000000000000000000000F50000000000000000000000000000000000000000000000000000000000000000000000000000000000000000000000000000000000000000000000000000000000000000000000000000000000000000000000000000
310
000000000000000000000000000000000000F50000000000F5F500F5F5F5F500000000000000000000D8F5F5F5BEBEBEBEBEBEDC0000000000D800000000F5F5F5F5BEBEBEBEBEBEBEF5F5000000000000000000000000C3282828282828282828000000000000BEDC0000F5002D2D00000000002D2D000000000000000000
310
000000000000000000000000000000000000000000000000000000000000000000000000000000000000F5000000000000000000000000000000000000000000000000000000000000000000000000000000000000000000000000000000000000000000000000000000000000000000000000000000000000000000000000
310
0000000000000000000000000000000000000000F50000000000F5F5000000000000000000000000000000D8F5F5F5000000000000000000000000D800000000F5F5F5F500000000000000F5F5000000000000000000000000C32828282828282828C3000000000000BEDC0000F500002D2D0000002D2D0000000000000000
310
0000000000000000000000000000000000000000000000000000000000000000000000000000000000000000F500000000000000000000000000000000000000000000000000000000000000000000000000000000000000000000000000000000000000000000000000000000000000000000000000000000000000000000
310
00000000000000000000000000000000000000000000F50000000000F5F5000000000000000000000000000000D8000000000000000000000000000000D8000000000000000000000000000000F5F500000000000000000000000028DC0000D80000000000000000000000BEDC0000F50000002D2D002D2D00000000000000
310
00000000000000000000000000000000000000000000000000000000000000000000000000000000000000000000F50000000000000000000000000000000000000000000000000000000000000000000000000000000000000000000000000000000000000000000000000000000000000000000000000000000000000000
310
000000000000000000000000000000000000000000000000F50000000000F5F5000000000000000000000000000000D8000000000000000000000000000000D8000000000000000000000000000000F5F500000000000000000000000028280000D80000000000000000000000BEBE0000F5000000002D2D2D000000000000
310
0000000000002D0000000000000000000000000000000000000000000000000000000000000000000000000000000000F5000000000000000000000000000000000000000000000000000000000000000000000000000000000000000000000000000000000000000000000000000000000000000000000000000000000000
310
0000000000000000000000000000000000000000000000000000F50000000000F5F5000000000000000000000000000000D8000000000000000000000000000000D8000000000000000000000000000000F5F500000000000000000000000028280000D800000000000000000000002DDC0000F500000000002D2D00000000
310
000000000000002D2D2D00000000000000000000000000000000000000000000000000000000000000000000000000000000F500000000000000000000000000000000000000000000000000000000000000000000000000000000000000000000000000000000000000000000000000000000000000000000000000000000
310
00000000000000000000000000000000000000000000000000000000F50000000000F5F5000000000000000000000000000000D8000000000000000000000000000000D8000000000000000000000000000000F5F5F5F5F5F5F5F5F5F5F5F5F5F5F5280000D8000000000000000000F5F5F5F50000F50000000000002D2D00
310
00000000000000002D2D002D2D000000000000000000000000000000000000000000000000000000000000000000000000000000F50000000000000000000000000000000000000000000000000000000000000000000000000000000000000000000000000000000000000000000000000000000000000000000000000000
310
000000000000000000000000000000000000000000000000000000000000F50000000000F5F5000000000000000000000000000000D8000000000000000000000000000000D8000000000000000000000000000000C3F5F5F5F5F5F5F5F5F5F5F5F5F5F5C30000D8000000000000000000F5F5F5F50000F500000000000000
310
2D2D000000000000002D2D0000002D2D0000000000000000000000000000000000000000000000000000000000000000000000000000F5000000000000000000000000000000000000000000000000000000000000000000000000000000000000000000000000000000000000000000000000000000000000000000000000
310
0000000000000000000000000000000000000000000000000000000000000000F50000000000F5F5000000000000000000000000000000D8000000000000000000000000000000D800000000000000000000000000000000D800000000000000000000000000280000D8000000000000000000000000000000F50000000000
310
0000002D2D00000000002D2D00000000002D2D00000000000000000000000000000000000000000000000000000000000000000000000000F500000000000000000000000000000000000000000000000000000000000000000000000000000000000000000000000000000000000000000000000000000000000000000000
310
00000000000000000000000000000000000000000000000000000000000000000000F50000000000F5F5000000000000000000000000000000D8000000000000000000000000000000D800000000000000000000000000000000D8000000000000000000000000CAF5F500D8000000000000000000000000000000F5000000
310
0000000000002D000000002D2D2D0000000000002D2D000000000000000000000000000000000000000000000000000000000000000000000000F50000000000000000000000000000000000000000000000000000000000000000000000000000000000000000000000000000000000000000000000000000000000000000
310
000000000000000000000000000000000000000000000000000000000000000000000000F50000000000F5F5000000000000000000000000000000D8000000000000000000000000000000D800000000000000000000000000000000D8000000000000000000000000CACAF500D8000000000000000000000000000000F500
310
0000000000000000000000002D2D002D2D0000000000002D2D0000000000000000000000000000000000000000000000000000000000000000000000F5000000000000000000000000000000000000000000000000000000000000000000000000000000000000000000000000000000000000000000000000000000000000
310
0000000000000000000000000000000000000000000000000000000000000000000000000000F50000000000F5F5000000000000000000000000000000D8000000000000000000000000000000D800000000000000000000000000000000D80000000000000000000000000000F500D8000000000000000000000000000000
310
F500F5F500000000000000002D2D2D0000002D2D0000000000002D0000000000000000000000000000000000000000000000000000000000000000000000F500000000000000000000000000000000000000000000000000000000000000000000000000000000000000000000000000000000000000000000000000000000
310
00000000000000000000000000000000000000000000000000000000000000000000000000000000F50000000000F5F5000000000000000000000000000000D8000000000000000000000000000000D800000000000000000000000000000000D80000000000000000000000000000F500D800000000000000000000000000
310
0000F500F5F50000000000000000002D2D000000002D2D0000000000000000000000000000000000000000000000000000000000000000000000000000000000F50000000000000000000000000000000000000000000000000000000000000000000000000000000000000000000000000000000000000000000000000000
310
000000000000000000000000000000000000000000000000000000000000000000000000000000000000F50000000000F5F5F5F5F5F5F5F5F5F5F5F5F5F5F5F5F5F5F5F5F5F5F5F5F5F5F5F5F5F5F5F5F5F5F5F5F5F5F5F5F5F5F5F5F5F5F5F5F5F5F5F5F5F5F5F5F5F5F5F5F5F5F5F5F5F5F5D8F5F5F5F5F5F5F5F5F5F5F5
310
F5F5F5F5D8D8F5F5000000000000000000002D2D000000002D0000000000000000000000000000000000000000000000000000000000000000000000000000000000F5000000000000000000000000000000000000000000000000000000000000000000000000000000000000000000000000000000000000000000000000
310
0000000000000000000000000000000000000000000000000000000000000000000000000000000000000000F5000000000000D8000000000000000000000000000000D8000000000000000000000000000000D800000000000000000000000000000000D800000000000000000000000000000000D8000000000000000000
310
000000000000D800000000000000000000000000002D2D000000000000000000000000000000000000000000000000000000000000000000000000000000000000000000F500000000000000000000000000000000000000000000000000000000000000000000000000000000000000000000000000000000000000000000
310
00000000000000000000000000000000000000000000000000000000000000000000000000000000000000000000F5000000000000D8000000000000000000000000000000D8000000000000000000000000000000D800000000000000000000000000000000D800000000000000000000000000000000D800000000000000
310
0000000000000000D80000000000000000000000000000002D2D0000000000000000000000000000000000000000000000000000000000000000000000000000000000000000F50000000000000000000000000000000000000000000000000000000000000000000000000000000000000000000000000000000000000000
310
000000000000000000000000000000000000000000000000000000000000000000000000000000000000000000000000F50000000000F5D8000000000000000000000000000000D8F50000000000000000000000000000D8000000000000000000000000000000F5D8000000000000000000000000000000F5D80000000000
310
000000000000000000F5F5000000000000000000000000000000002D2D00000000000000000000000000000000000000000000000000000000000000000000000000000000000000F5000000000000000000000000000000000000000000000000000000000000000000000000000000000000000000000000000000000000
310
0000000000000000000000000000000000000000000000000000000000000000000000000000000000000000000000000000F50000000000F5D8000000000000000000000000000000D8F50000000000000000000000000000D8F50000000000000000000000000000F5D8000000000000000000000000000000F5D8000000
310
0000000000000000000000F5F500000000000000000000000000000000002D2D000000000000000000000000000000000000000000000000000000000000000000000000000000000000F500000000000000000000000000000000000000000000000000000000000000000000000000000000000000000000000000000000
310
00000000000000000000000000000000000000000000000000000000000000000000000000000000000000000000000000000000F50000000000F5F5000000000000000000000000000000F5F50000000000000000000000000000F5F50000000000000000000000000000F5F5000000000000000000000000000000F5F500
310
00000000000000000000000000F5F50000000000000000000000000000000000002D000000000000000000000000000000000000000000000000000000000000000000000000000000000000F50000000000000000000000000000000000000000000000000000000000000000000000000000000000000000000000000000
310
000000000000000000000000000000000000000000000000000000000000000000000000000000000000000000000000000000000000F5000000000000000000000000000000000000000000000000000000000000000000000000000000000000000000000000000000000000000000000000000000000000000000000000
310
000000000000000000000000000000000000000000000000000000000000000000000000000000000000000000000000000000000000000000000000000000000000000000000000000000000000F5000000000000000000000000000000000000000000000000000000000000000000000000000000000000000000000000
310
0000000000000000000000000000000000000000000000000000000000000000000000000000000000000000000000000000000000000000F5F5F5F5F5F5F5F5F5F5F5F5F5F5F5F5F5F5F5F5F5F5F5F5F5F5F5F5F5F5F5F5F5F5F5F5F5F5F5F5F5F5F5F5F5F5F5F5F5F5F5F5F5F5F5F5F5F5F5F5F5F5F5F5F5F5F5F5F5F5F5
310
F5F5F5F5F5F5F5F5F5F5F5F5F5F5F5F5F5F5F5F5F5F5F5F5F5F5F5F5F5F5F5F5F5F5F5F5F5F5F5F5F5F5F5F5F5F5F5F5F5F5F5F5F5F5F5F5F5F5F5F5F5F5F5F5F5F5F5F5F5F5F5F5F5F5F5F5F5F5F5F5F500000000000000000000000000000000000000000000000000000000000000000000000000000000000000000000
310
00000000000000000000000000000000000000000000000000000000000000000000000000000000000000000000000000000000000000000000F5F5F5F5F5F5F5F5F5F5F5F5F5F5F5F5F5F5F5F5F5F5F5F5F5F5F5F5F5F5F5F5F5F5F5F5F5F5F5F5F5F5F5F5F5F5F5F5F5F5F5F5F5F5F5F5F5F5F5F5F5F5F5F5F5F5F5F5F5
310
F5F5F5F5F5F5F5F5F5F5F5F5F5F5F5F5F5F5F5F5F5F5F5F5F5F5F5F5F5F5F5F5F5F5F5F5F5F5F5F5F5F5F5F5F5F5F5F5F5F5F5F5F5F5F5F5F5F5F5F5F5F5F5F5F5F5F5F5F5F5F5F5F5F5F5F5F5F5F5F5F5F5F50000000000000000000000000000000000000000000000000000000000000000000000000000000000000000
310
00000000000000000000000000000000000000000000000000000000000000000000000000000000000000000000000000000000000000000000000000000000000000000000000000000000000000000000000000000000000000000000000000000000000000000000000000000000000000000000000000000000000000
310
00000000000000000000000000000000000000000000000000000000000000000000000000000000000000000000000000000000000000000000000000000000000000000000000000000000000000000000000000000000000000000000000000000000000000000000000000000000000000000000000000000000000000
310
00000000000000000000000000000000000000000000000000000000000000000000000000000000000000000000000000000000000000000000000000000000000000000000000000000000000000000000000000000000000000000000000000000000000000000000000000000000000000000000000000000000000000
310
00000000000000000000000000000000000000000000000000000000000000000000000000000000000000000000000000000000000000000000000000000000000000000000000000000000000000000000000000000000000000000000000000000000000000000000000000000000000000000000000000000000000000
310
00000000000000000000000000000000000000000000000000000000000000000000000000000000000000000000000000000000000000000000000000000000000000000000000000000000000000000000000000000000000000000000000000000000000000000000000000000000000000000000000000000000000000
310
00000000000000000000000000000000000000000000000000000000000000000000000000000000000000000000000000000000000000000000000000000000000000000000000000000000000000000000000000000000000000000000000000000000000000000000000000000000000000000000000000000000000000
310
00000000000000000000000000000000000000000000000000000000000000000000000000000000000000000000000000000000000000000000000000000000000000000000000000000000000000000000000000000000000000000000000000000000000000000000000000000000000000000000000000000000000000
310
00000000000000000000000000000000000000000000000000000000000000000000000000000000000000000000000000000000000000000000000000000000000000000000000000000000000000000000000000000000000000000000000000000000000000000000000000000000000000000000000000000000000000
310
00000000000000000000000000000000
  0
XRECORD
  5
2FC0
102
{ACAD_REACTORS
330
2CC3
102
}
330
2CC3
100
AcDbXrecord
280
     1
102
MATERIAL
148
0.0
149
0.0
149
0.0
 93
        0
 94
      127
282
     0
 72
     0
 77
     0
171
     0
175
     0
179
     0
273
     0
  0
XRECORD
  5
2CC5
102
{ACAD_REACTORS
330
2CC3
102
}
330
2CC3
100
AcDbXrecord
280
     1
270
     1
271
     1
  0
XRECORD
  5
2CC4
102
{ACAD_REACTORS
330
2CC3
102
}
330
2CC3
100
AcDbXrecord
280
     1
270
     1
271
     1
  0
XRECORD
  5
2CC8
102
{ACAD_REACTORS
330
2CC3
102
}
330
2CC3
100
AcDbXrecord
280
     1
270
     1
271
     1
  0
XRECORD
  5
2CC7
102
{ACAD_REACTORS
330
2CC3
102
}
330
2CC3
100
AcDbXrecord
280
     1
270
     1
271
     1
  0
XRECORD
  5
2CC9
102
{ACAD_REACTORS
330
2CC3
102
}
330
2CC3
100
AcDbXrecord
280
     1
270
     1
271
     1
  0
XRECORD
  5
2CC6
102
{ACAD_REACTORS
330
2CC3
102
}
330
2CC3
100
AcDbXrecord
280
     1
270
     1
271
     1
  0
XRECORD
  5
2FBF
102
{ACAD_REACTORS
330
2CBB
102
}
330
2CBB
100
AcDbXrecord
280
     1
102
MATERIAL
148
0.0
149
0.0
149
0.0
 93
        0
 94
      127
282
     0
 72
     0
 77
     0
171
     0
175
     0
179
     0
273
     0
  0
XRECORD
  5
2CBD
102
{ACAD_REACTORS
330
2CBB
102
}
330
2CBB
100
AcDbXrecord
280
     1
270
     1
271
     1
  0
XRECORD
  5
2CBC
102
{ACAD_REACTORS
330
2CBB
102
}
330
2CBB
100
AcDbXrecord
280
     1
270
     1
271
     1
  0
XRECORD
  5
2CC0
102
{ACAD_REACTORS
330
2CBB
102
}
330
2CBB
100
AcDbXrecord
280
     1
270
     1
271
     1
  0
XRECORD
  5
2CBF
102
{ACAD_REACTORS
330
2CBB
102
}
330
2CBB
100
AcDbXrecord
280
     1
270
     1
271
     1
  0
XRECORD
  5
2CC1
102
{ACAD_REACTORS
330
2CBB
102
}
330
2CBB
100
AcDbXrecord
280
     1
270
     1
271
     1
  0
XRECORD
  5
2CBE
102
{ACAD_REACTORS
330
2CBB
102
}
330
2CBB
100
AcDbXrecord
280
     1
270
     1
271
     1
  0
XRECORD
  5
2FC1
102
{ACAD_REACTORS
330
2CCB
102
}
330
2CCB
100
AcDbXrecord
280
     1
102
MATERIAL
148
0.0
149
0.0
149
0.0
 93
        0
 94
      127
282
     0
 72
     0
 77
     0
171
     0
175
     0
179
     0
273
     0
  0
XRECORD
  5
2CCD
102
{ACAD_REACTORS
330
2CCB
102
}
330
2CCB
100
AcDbXrecord
280
     1
270
     1
271
     1
  0
XRECORD
  5
2CCC
102
{ACAD_REACTORS
330
2CCB
102
}
330
2CCB
100
AcDbXrecord
280
     1
270
     1
271
     1
  0
XRECORD
  5
2CD0
102
{ACAD_REACTORS
330
2CCB
102
}
330
2CCB
100
AcDbXrecord
280
     1
270
     1
271
     1
  0
XRECORD
  5
2CCF
102
{ACAD_REACTORS
330
2CCB
102
}
330
2CCB
100
AcDbXrecord
280
     1
270
     1
271
     1
  0
XRECORD
  5
2CD1
102
{ACAD_REACTORS
330
2CCB
102
}
330
2CCB
100
AcDbXrecord
280
     1
270
     1
271
     1
  0
XRECORD
  5
2CCE
102
{ACAD_REACTORS
330
2CCB
102
}
330
2CCB
100
AcDbXrecord
280
     1
270
     1
271
     1
  0
CELLSTYLEMAP
  5
3142
102
{ACAD_REACTORS
330
2D6D
102
}
330
2D6D
100
AcDbCellStyleMap
 90
        3
300
CELLSTYLE
  1
TABLEFORMAT_BEGIN
 90
        5
170
     1
 91
        0
 92
    32768
 62
   257
 93
        1
300
CONTENTFORMAT
  1
CONTENTFORMAT_BEGIN
 90
        0
 91
        0
 92
        4
 93
        0
300

 40
0.0
140
1.0
 94
        5
 62
     0
340
11
144
0.25
309
CONTENTFORMAT_END
171
     1
301
MARGIN
  1
CELLMARGIN_BEGIN
 40
0.06
 40
0.06
 40
0.06
 40
0.06
 40
0.18
 40
0.18
309
CELLMARGIN_END
 94
        6
 95
        1
302
GRIDFORMAT
  1
GRIDFORMAT_BEGIN
 90
        0
 91
        1
 62
     0
 92
       -2
340
0
 93
        0
 40
0.045
309
GRIDFORMAT_END
 95
        2
302
GRIDFORMAT
  1
GRIDFORMAT_BEGIN
 90
        0
 91
        1
 62
     0
 92
       -2
340
0
 93
        0
 40
0.045
309
GRIDFORMAT_END
 95
        4
302
GRIDFORMAT
  1
GRIDFORMAT_BEGIN
 90
        0
 91
        1
 62
     0
 92
       -2
340
0
 93
        0
 40
0.045
309
GRIDFORMAT_END
 95
        8
302
GRIDFORMAT
  1
GRIDFORMAT_BEGIN
 90
        0
 91
        1
 62
     0
 92
       -2
340
0
 93
        0
 40
0.045
309
GRIDFORMAT_END
 95
       16
302
GRIDFORMAT
  1
GRIDFORMAT_BEGIN
 90
        0
 91
        1
 62
     0
 92
       -2
340
0
 93
        0
 40
0.045
309
GRIDFORMAT_END
 95
       32
302
GRIDFORMAT
  1
GRIDFORMAT_BEGIN
 90
        0
 91
        1
 62
     0
 92
       -2
340
0
 93
        0
 40
0.045
309
GRIDFORMAT_END
309
TABLEFORMAT_END
  1
CELLSTYLE_BEGIN
 90
        1
 91
        1
300
_TITLE
309
CELLSTYLE_END
300
CELLSTYLE
  1
TABLEFORMAT_BEGIN
 90
        5
170
     1
 91
        0
 92
        0
 62
   257
 93
        1
300
CONTENTFORMAT
  1
CONTENTFORMAT_BEGIN
 90
        0
 91
        0
 92
        4
 93
        0
300

 40
0.0
140
1.0
 94
        5
 62
     0
340
11
144
0.18
309
CONTENTFORMAT_END
171
     1
301
MARGIN
  1
CELLMARGIN_BEGIN
 40
0.06
 40
0.06
 40
0.06
 40
0.06
 40
0.18
 40
0.18
309
CELLMARGIN_END
 94
        6
 95
        1
302
GRIDFORMAT
  1
GRIDFORMAT_BEGIN
 90
        0
 91
        1
 62
     0
 92
       -2
340
0
 93
        0
 40
0.045
309
GRIDFORMAT_END
 95
        2
302
GRIDFORMAT
  1
GRIDFORMAT_BEGIN
 90
        0
 91
        1
 62
     0
 92
       -2
340
0
 93
        0
 40
0.045
309
GRIDFORMAT_END
 95
        4
302
GRIDFORMAT
  1
GRIDFORMAT_BEGIN
 90
        0
 91
        1
 62
     0
 92
       -2
340
0
 93
        0
 40
0.045
309
GRIDFORMAT_END
 95
        8
302
GRIDFORMAT
  1
GRIDFORMAT_BEGIN
 90
        0
 91
        1
 62
     0
 92
       -2
340
0
 93
        0
 40
0.045
309
GRIDFORMAT_END
 95
       16
302
GRIDFORMAT
  1
GRIDFORMAT_BEGIN
 90
        0
 91
        1
 62
     0
 92
       -2
340
0
 93
        0
 40
0.045
309
GRIDFORMAT_END
 95
       32
302
GRIDFORMAT
  1
GRIDFORMAT_BEGIN
 90
        0
 91
        1
 62
     0
 92
       -2
340
0
 93
        0
 40
0.045
309
GRIDFORMAT_END
309
TABLEFORMAT_END
  1
CELLSTYLE_BEGIN
 90
        2
 91
        1
300
_HEADER
309
CELLSTYLE_END
300
CELLSTYLE
  1
TABLEFORMAT_BEGIN
 90
        5
170
     1
 91
        0
 92
        0
 62
   257
 93
        1
300
CONTENTFORMAT
  1
CONTENTFORMAT_BEGIN
 90
        0
 91
        0
 92
        4
 93
        0
300

 40
0.0
140
1.0
 94
        2
 62
     0
340
11
144
0.18
309
CONTENTFORMAT_END
171
     1
301
MARGIN
  1
CELLMARGIN_BEGIN
 40
0.06
 40
0.06
 40
0.06
 40
0.06
 40
0.18
 40
0.18
309
CELLMARGIN_END
 94
        6
 95
        1
302
GRIDFORMAT
  1
GRIDFORMAT_BEGIN
 90
        0
 91
        1
 62
     0
 92
       -2
340
0
 93
        0
 40
0.045
309
GRIDFORMAT_END
 95
        2
302
GRIDFORMAT
  1
GRIDFORMAT_BEGIN
 90
        0
 91
        1
 62
     0
 92
       -2
340
0
 93
        0
 40
0.045
309
GRIDFORMAT_END
 95
        4
302
GRIDFORMAT
  1
GRIDFORMAT_BEGIN
 90
        0
 91
        1
 62
     0
 92
       -2
340
0
 93
        0
 40
0.045
309
GRIDFORMAT_END
 95
        8
302
GRIDFORMAT
  1
GRIDFORMAT_BEGIN
 90
        0
 91
        1
 62
     0
 92
       -2
340
0
 93
        0
 40
0.045
309
GRIDFORMAT_END
 95
       16
302
GRIDFORMAT
  1
GRIDFORMAT_BEGIN
 90
        0
 91
        1
 62
     0
 92
       -2
340
0
 93
        0
 40
0.045
309
GRIDFORMAT_END
 95
       32
302
GRIDFORMAT
  1
GRIDFORMAT_BEGIN
 90
        0
 91
        1
 62
     0
 92
       -2
340
0
 93
        0
 40
0.045
309
GRIDFORMAT_END
309
TABLEFORMAT_END
  1
CELLSTYLE_BEGIN
 90
        3
 91
        2
300
_DATA
309
CELLSTYLE_END
  0
XRECORD
  5
3144
102
{ACAD_REACTORS
330
2D6D
102
}
330
2D6D
100
AcDbXrecord
280
     1
102
ACAD_ROUNDTRIP_PRE2007_TABLESTYLE
 90
        4
 91
        0
  1

 92
        4
 93
        0
  2

 94
        4
 95
        0
  3

  0
XRECORD
  5
3150
102
{ACAD_REACTORS
330
314F
102
}
330
314F
100
AcDbXrecord
280
     1
102
RTVSPropertyOp0
 70
     1
102
RTVSPropertyOp1
 70
     1
102
RTVSPropertyOp2
 70
     1
102
RTVSPropertyOp3
 70
     1
102
RTVSPropertyOp4
 70
     1
102
RTVSPropertyOp5
 70
     1
102
RTVSPropertyOp6
 70
     1
102
RTVSPropertyOp7
 70
     1
102
RTVSPropertyOp8
 70
     1
102
RTVSPropertyOp9
 70
     1
102
RTVSPropertyOp10
 70
     1
102
RTVSPropertyOp11
 70
     1
102
RTVSPropertyOp12
 70
     1
102
RTVSPropertyOp13
 70
     1
102
RTVSPropertyOp14
 70
     1
102
RTVSPropertyOp15
 70
     1
102
RTVSPropertyOp16
 70
     1
102
RTVSPropertyOp17
 70
     1
102
RTVSPropertyOp18
 70
     1
102
RTVSPropertyOp19
 70
     1
102
RTVSPropertyOp20
 70
     1
102
RTVSPropertyOp21
 70
     1
102
RTVSPropertyOp22
 70
     1
102
RTVSPropertyOp23
 70
     1
102
RTVSPropertyOp24
 70
     1
102
RTVSPropertyOp25
 70
     1
102
RTVSPropertyOp26
 70
     1
102
RTVSPropertyOp27
 70
     1
102
RTVSPropertyOp28
 70
     1
102
RTVSPropertyOp29
 70
     1
102
RTVSPropertyOp30
 70
     1
102
RTVSPropertyOp31
 70
     1
102
RTVSPropertyOp32
 70
     1
  0
XRECORD
  5
314E
102
{ACAD_REACTORS
330
314D
102
}
330
314D
100
AcDbXrecord
280
     1
102
RTVSPropertyOp0
 70
     1
102
RTVSPropertyOp1
 70
     1
102
RTVSPropertyOp2
 70
     1
102
RTVSPropertyOp3
 70
     1
102
RTVSPropertyOp4
 70
     1
102
RTVSPropertyOp5
 70
     1
102
RTVSPropertyOp6
 70
     1
102
RTVSPropertyOp7
 70
     1
102
RTVSPropertyOp8
 70
     1
102
RTVSPropertyOp9
 70
     1
102
RTVSPropertyOp10
 70
     1
102
RTVSPropertyOp11
 70
     1
102
RTVSPropertyOp12
 70
     1
102
RTVSPropertyOp13
 70
     1
102
RTVSPropertyOp14
 70
     1
102
RTVSPropertyOp15
 70
     1
102
RTVSPropertyOp16
 70
     1
102
RTVSPropertyOp17
 70
     1
102
RTVSPropertyOp18
 70
     1
102
RTVSPropertyOp19
 70
     1
102
RTVSPropertyOp20
 70
     1
102
RTVSPropertyOp21
 70
     1
102
RTVSPropertyOp22
 70
     1
102
RTVSPropertyOp23
 70
     1
102
RTVSPropertyOp24
 70
     1
102
RTVSPropertyOp25
 70
     1
102
RTVSPropertyOp26
 70
     1
102
RTVSPropertyOp27
 70
     1
102
RTVSPropertyOp28
 70
     1
102
RTVSPropertyOp29
 70
     1
102
RTVSPropertyOp30
 70
     1
102
RTVSPropertyOp31
 70
     1
102
RTVSPropertyOp32
 70
     1
  0
XRECORD
  5
315C
102
{ACAD_REACTORS
330
315B
102
}
330
315B
100
AcDbXrecord
280
     1
102
RTVSPropertyOp0
 70
     1
102
RTVSPropertyOp1
 70
     1
102
RTVSPropertyOp2
 70
     1
102
RTVSPropertyOp3
 70
     1
102
RTVSPropertyOp4
 70
     1
102
RTVSPropertyOp5
 70
     1
102
RTVSPropertyOp6
 70
     1
102
RTVSPropertyOp7
 70
     1
102
RTVSPropertyOp8
 70
     1
102
RTVSPropertyOp9
 70
     1
102
RTVSPropertyOp10
 70
     1
102
RTVSPropertyOp11
 70
     1
102
RTVSPropertyOp12
 70
     1
102
RTVSPropertyOp13
 70
     1
102
RTVSPropertyOp14
 70
     1
102
RTVSPropertyOp15
 70
     1
102
RTVSPropertyOp16
 70
     1
102
RTVSPropertyOp17
 70
     1
102
RTVSPropertyOp18
 70
     1
102
RTVSPropertyOp19
 70
     1
102
RTVSPropertyOp20
 70
     1
102
RTVSPropertyOp21
 70
     1
102
RTVSPropertyOp22
 70
     1
102
RTVSPropertyOp23
 70
     1
102
RTVSPropertyOp24
 70
     1
102
RTVSPropertyOp25
 70
     1
102
RTVSPropertyOp26
 70
     1
102
RTVSPropertyOp27
 70
     1
102
RTVSPropertyOp28
 70
     1
102
RTVSPropertyOp29
 70
     1
102
RTVSPropertyOp30
 70
     1
102
RTVSPropertyOp31
 70
     1
102
RTVSPropertyOp32
 70
     1
  0
XRECORD
  5
3164
102
{ACAD_REACTORS
330
3163
102
}
330
3163
100
AcDbXrecord
280
     1
102
RTVSPropertyOp0
 70
     1
102
RTVSPropertyOp1
 70
     1
102
RTVSPropertyOp2
 70
     1
102
RTVSPropertyOp3
 70
     1
102
RTVSPropertyOp4
 70
     1
102
RTVSPropertyOp5
 70
     1
102
RTVSPropertyOp6
 70
     1
102
RTVSPropertyOp7
 70
     1
102
RTVSPropertyOp8
 70
     1
102
RTVSPropertyOp9
 70
     1
102
RTVSPropertyOp10
 70
     1
102
RTVSPropertyOp11
 70
     1
102
RTVSPropertyOp12
 70
     1
102
RTVSPropertyOp13
 70
     1
102
RTVSPropertyOp14
 70
     1
102
RTVSPropertyOp15
 70
     1
102
RTVSPropertyOp16
 70
     1
102
RTVSPropertyOp17
 70
     1
102
RTVSPropertyOp18
 70
     1
102
RTVSPropertyOp19
 70
     1
102
RTVSPropertyOp20
 70
     1
102
RTVSPropertyOp21
 70
     1
102
RTVSPropertyOp22
 70
     1
102
RTVSPropertyOp23
 70
     1
102
RTVSPropertyOp24
 70
     1
102
RTVSPropertyOp25
 70
     1
102
RTVSPropertyOp26
 70
     1
102
RTVSPropertyOp27
 70
     1
102
RTVSPropertyOp28
 70
     1
102
RTVSPropertyOp29
 70
     1
102
RTVSPropertyOp30
 70
     1
102
RTVSPropertyOp31
 70
     1
102
RTVSPropertyOp32
 70
     1
  0
XRECORD
  5
3156
102
{ACAD_REACTORS
330
3155
102
}
330
3155
100
AcDbXrecord
280
     1
102
RTVSPropertyOp0
 70
     1
102
RTVSPropertyOp1
 70
     1
102
RTVSPropertyOp2
 70
     1
102
RTVSPropertyOp3
 70
     1
102
RTVSPropertyOp4
 70
     1
102
RTVSPropertyOp5
 70
     1
102
RTVSPropertyOp6
 70
     1
102
RTVSPropertyOp7
 70
     1
102
RTVSPropertyOp8
 70
     1
102
RTVSPropertyOp9
 70
     1
102
RTVSPropertyOp10
 70
     1
102
RTVSPropertyOp11
 70
     1
102
RTVSPropertyOp12
 70
     1
102
RTVSPropertyOp13
 70
     1
102
RTVSPropertyOp14
 70
     1
102
RTVSPropertyOp15
 70
     1
102
RTVSPropertyOp16
 70
     1
102
RTVSPropertyOp17
 70
     1
102
RTVSPropertyOp18
 70
     1
102
RTVSPropertyOp19
 70
     1
102
RTVSPropertyOp20
 70
     1
102
RTVSPropertyOp21
 70
     1
102
RTVSPropertyOp22
 70
     1
102
RTVSPropertyOp23
 70
     1
102
RTVSPropertyOp24
 70
     1
102
RTVSPropertyOp25
 70
     1
102
RTVSPropertyOp26
 70
     1
102
RTVSPropertyOp27
 70
     1
102
RTVSPropertyOp28
 70
     1
102
RTVSPropertyOp29
 70
     1
102
RTVSPropertyOp30
 70
     1
102
RTVSPropertyOp31
 70
     1
102
RTVSPropertyOp32
 70
     1
  0
XRECORD
  5
315A
102
{ACAD_REACTORS
330
3159
102
}
330
3159
100
AcDbXrecord
280
     1
102
RTVSPropertyOp0
 70
     1
102
RTVSPropertyOp1
 70
     1
102
RTVSPropertyOp2
 70
     1
102
RTVSPropertyOp3
 70
     1
102
RTVSPropertyOp4
 70
     1
102
RTVSPropertyOp5
 70
     1
102
RTVSPropertyOp6
 70
     1
102
RTVSPropertyOp7
 70
     1
102
RTVSPropertyOp8
 70
     1
102
RTVSPropertyOp9
 70
     1
102
RTVSPropertyOp10
 70
     1
102
RTVSPropertyOp11
 70
     1
102
RTVSPropertyOp12
 70
     1
102
RTVSPropertyOp13
 70
     1
102
RTVSPropertyOp14
 70
     1
102
RTVSPropertyOp15
 70
     1
102
RTVSPropertyOp16
 70
     1
102
RTVSPropertyOp17
 70
     1
102
RTVSPropertyOp18
 70
     1
102
RTVSPropertyOp19
 70
     1
102
RTVSPropertyOp20
 70
     1
102
RTVSPropertyOp21
 70
     1
102
RTVSPropertyOp22
 70
     1
102
RTVSPropertyOp23
 70
     1
102
RTVSPropertyOp24
 70
     1
102
RTVSPropertyOp25
 70
     1
102
RTVSPropertyOp26
 70
     1
102
RTVSPropertyOp27
 70
     1
102
RTVSPropertyOp28
 70
     1
102
RTVSPropertyOp29
 70
     1
102
RTVSPropertyOp30
 70
     1
102
RTVSPropertyOp31
 70
     1
102
RTVSPropertyOp32
 70
     1
  0
XRECORD
  5
3174
102
{ACAD_REACTORS
330
3173
102
}
330
3173
100
AcDbXrecord
280
     1
102
RTVSPropertyOp0
 70
     0
102
RTVSPropertyOp1
 70
     0
102
RTVSPropertyOp2
 70
     0
102
RTVSPropertyOp3
 70
     0
102
RTVSPropertyOp4
 70
     0
102
RTVSPropertyOp5
 70
     0
102
RTVSPropertyOp6
 70
     0
102
RTVSPropertyOp7
 70
     0
102
RTVSPropertyOp8
 70
     0
102
RTVSPropertyOp9
 70
     0
102
RTVSPropertyOp10
 70
     0
102
RTVSPropertyOp11
 70
     0
102
RTVSPropertyOp12
 70
     0
102
RTVSPropertyOp13
 70
     0
102
RTVSPropertyOp14
 70
     2
102
RTVSPropertyOp15
 70
     0
102
RTVSPropertyOp16
 70
     0
102
RTVSPropertyOp17
 70
     0
102
RTVSPropertyOp18
 70
     0
102
RTVSPropertyOp19
 70
     0
102
RTVSPropertyOp20
 70
     0
102
RTVSPropertyOp21
 70
     0
102
RTVSPropertyOp22
 70
     0
102
RTVSPropertyOp23
 70
     0
102
RTVSPropertyOp24
 70
     0
102
RTVSPropertyOp25
 70
     0
102
RTVSPropertyOp26
 70
     0
102
RTVSPropertyOp27
 70
     0
102
RTVSPropertyOp28
 70
     0
102
RTVSPropertyOp29
 70
     0
102
RTVSPropertyOp30
 70
     0
102
RTVSPropertyOp31
 70
     0
102
RTVSPropertyOp32
 70
     0
  0
XRECORD
  5
3162
102
{ACAD_REACTORS
330
3161
102
}
330
3161
100
AcDbXrecord
280
     1
102
RTVSPropertyOp0
 70
     1
102
RTVSPropertyOp1
 70
     1
102
RTVSPropertyOp2
 70
     1
102
RTVSPropertyOp3
 70
     1
102
RTVSPropertyOp4
 70
     1
102
RTVSPropertyOp5
 70
     1
102
RTVSPropertyOp6
 70
     1
102
RTVSPropertyOp7
 70
     1
102
RTVSPropertyOp8
 70
     1
102
RTVSPropertyOp9
 70
     1
102
RTVSPropertyOp10
 70
     1
102
RTVSPropertyOp11
 70
     1
102
RTVSPropertyOp12
 70
     1
102
RTVSPropertyOp13
 70
     1
102
RTVSPropertyOp14
 70
     1
102
RTVSPropertyOp15
 70
     1
102
RTVSPropertyOp16
 70
     1
102
RTVSPropertyOp17
 70
     1
102
RTVSPropertyOp18
 70
     1
102
RTVSPropertyOp19
 70
     1
102
RTVSPropertyOp20
 70
     1
102
RTVSPropertyOp21
 70
     1
102
RTVSPropertyOp22
 70
     1
102
RTVSPropertyOp23
 70
     1
102
RTVSPropertyOp24
 70
     1
102
RTVSPropertyOp25
 70
     1
102
RTVSPropertyOp26
 70
     1
102
RTVSPropertyOp27
 70
     1
102
RTVSPropertyOp28
 70
     1
102
RTVSPropertyOp29
 70
     1
102
RTVSPropertyOp30
 70
     1
102
RTVSPropertyOp31
 70
     1
102
RTVSPropertyOp32
 70
     1
  0
XRECORD
  5
3146
102
{ACAD_REACTORS
330
3145
102
}
330
3145
100
AcDbXrecord
280
     1
102
RTVSPropertyOp0
 70
     1
102
RTVSPropertyOp1
 70
     1
102
RTVSPropertyOp2
 70
     1
102
RTVSPropertyOp3
 70
     1
102
RTVSPropertyOp4
 70
     1
102
RTVSPropertyOp5
 70
     1
102
RTVSPropertyOp6
 70
     1
102
RTVSPropertyOp7
 70
     1
102
RTVSPropertyOp8
 70
     1
102
RTVSPropertyOp9
 70
     1
102
RTVSPropertyOp10
 70
     1
102
RTVSPropertyOp11
 70
     1
102
RTVSPropertyOp12
 70
     1
102
RTVSPropertyOp13
 70
     1
102
RTVSPropertyOp14
 70
     1
102
RTVSPropertyOp15
 70
     1
102
RTVSPropertyOp16
 70
     1
102
RTVSPropertyOp17
 70
     1
102
RTVSPropertyOp18
 70
     1
102
RTVSPropertyOp19
 70
     1
102
RTVSPropertyOp20
 70
     1
102
RTVSPropertyOp21
 70
     1
102
RTVSPropertyOp22
 70
     1
102
RTVSPropertyOp23
 70
     1
102
RTVSPropertyOp24
 70
     1
102
RTVSPropertyOp25
 70
     1
102
RTVSPropertyOp26
 70
     1
102
RTVSPropertyOp27
 70
     1
102
RTVSPropertyOp28
 70
     1
102
RTVSPropertyOp29
 70
     1
102
RTVSPropertyOp30
 70
     1
102
RTVSPropertyOp31
 70
     1
102
RTVSPropertyOp32
 70
     1
  0
XRECORD
  5
3148
102
{ACAD_REACTORS
330
3147
102
}
330
3147
100
AcDbXrecord
280
     1
102
RTVSPropertyOp0
 70
     1
102
RTVSPropertyOp1
 70
     1
102
RTVSPropertyOp2
 70
     1
102
RTVSPropertyOp3
 70
     1
102
RTVSPropertyOp4
 70
     1
102
RTVSPropertyOp5
 70
     1
102
RTVSPropertyOp6
 70
     1
102
RTVSPropertyOp7
 70
     1
102
RTVSPropertyOp8
 70
     1
102
RTVSPropertyOp9
 70
     1
102
RTVSPropertyOp10
 70
     1
102
RTVSPropertyOp11
 70
     1
102
RTVSPropertyOp12
 70
     1
102
RTVSPropertyOp13
 70
     1
102
RTVSPropertyOp14
 70
     1
102
RTVSPropertyOp15
 70
     1
102
RTVSPropertyOp16
 70
     1
102
RTVSPropertyOp17
 70
     1
102
RTVSPropertyOp18
 70
     1
102
RTVSPropertyOp19
 70
     1
102
RTVSPropertyOp20
 70
     1
102
RTVSPropertyOp21
 70
     1
102
RTVSPropertyOp22
 70
     1
102
RTVSPropertyOp23
 70
     1
102
RTVSPropertyOp24
 70
     1
102
RTVSPropertyOp25
 70
     1
102
RTVSPropertyOp26
 70
     1
102
RTVSPropertyOp27
 70
     1
102
RTVSPropertyOp28
 70
     1
102
RTVSPropertyOp29
 70
     1
102
RTVSPropertyOp30
 70
     1
102
RTVSPropertyOp31
 70
     1
102
RTVSPropertyOp32
 70
     1
  0
XRECORD
  5
314A
102
{ACAD_REACTORS
330
3149
102
}
330
3149
100
AcDbXrecord
280
     1
102
RTVSPropertyOp0
 70
     1
102
RTVSPropertyOp1
 70
     1
102
RTVSPropertyOp2
 70
     1
102
RTVSPropertyOp3
 70
     1
102
RTVSPropertyOp4
 70
     1
102
RTVSPropertyOp5
 70
     1
102
RTVSPropertyOp6
 70
     1
102
RTVSPropertyOp7
 70
     1
102
RTVSPropertyOp8
 70
     1
102
RTVSPropertyOp9
 70
     1
102
RTVSPropertyOp10
 70
     1
102
RTVSPropertyOp11
 70
     1
102
RTVSPropertyOp12
 70
     1
102
RTVSPropertyOp13
 70
     1
102
RTVSPropertyOp14
 70
     1
102
RTVSPropertyOp15
 70
     1
102
RTVSPropertyOp16
 70
     1
102
RTVSPropertyOp17
 70
     1
102
RTVSPropertyOp18
 70
     1
102
RTVSPropertyOp19
 70
     1
102
RTVSPropertyOp20
 70
     1
102
RTVSPropertyOp21
 70
     1
102
RTVSPropertyOp22
 70
     1
102
RTVSPropertyOp23
 70
     1
102
RTVSPropertyOp24
 70
     1
102
RTVSPropertyOp25
 70
     1
102
RTVSPropertyOp26
 70
     1
102
RTVSPropertyOp27
 70
     1
102
RTVSPropertyOp28
 70
     1
102
RTVSPropertyOp29
 70
     1
102
RTVSPropertyOp30
 70
     1
102
RTVSPropertyOp31
 70
     1
102
RTVSPropertyOp32
 70
     1
  0
XRECORD
  5
314C
102
{ACAD_REACTORS
330
314B
102
}
330
314B
100
AcDbXrecord
280
     1
102
RTVSPropertyOp0
 70
     1
102
RTVSPropertyOp1
 70
     1
102
RTVSPropertyOp2
 70
     1
102
RTVSPropertyOp3
 70
     1
102
RTVSPropertyOp4
 70
     1
102
RTVSPropertyOp5
 70
     1
102
RTVSPropertyOp6
 70
     1
102
RTVSPropertyOp7
 70
     1
102
RTVSPropertyOp8
 70
     1
102
RTVSPropertyOp9
 70
     1
102
RTVSPropertyOp10
 70
     1
102
RTVSPropertyOp11
 70
     1
102
RTVSPropertyOp12
 70
     1
102
RTVSPropertyOp13
 70
     1
102
RTVSPropertyOp14
 70
     1
102
RTVSPropertyOp15
 70
     1
102
RTVSPropertyOp16
 70
     1
102
RTVSPropertyOp17
 70
     1
102
RTVSPropertyOp18
 70
     1
102
RTVSPropertyOp19
 70
     1
102
RTVSPropertyOp20
 70
     1
102
RTVSPropertyOp21
 70
     1
102
RTVSPropertyOp22
 70
     1
102
RTVSPropertyOp23
 70
     1
102
RTVSPropertyOp24
 70
     1
102
RTVSPropertyOp25
 70
     1
102
RTVSPropertyOp26
 70
     1
102
RTVSPropertyOp27
 70
     1
102
RTVSPropertyOp28
 70
     1
102
RTVSPropertyOp29
 70
     1
102
RTVSPropertyOp30
 70
     1
102
RTVSPropertyOp31
 70
     1
102
RTVSPropertyOp32
 70
     1
  0
XRECORD
  5
3154
102
{ACAD_REACTORS
330
3153
102
}
330
3153
100
AcDbXrecord
280
     1
102
RTVSPropertyOp0
 70
     1
102
RTVSPropertyOp1
 70
     1
102
RTVSPropertyOp2
 70
     1
102
RTVSPropertyOp3
 70
     1
102
RTVSPropertyOp4
 70
     1
102
RTVSPropertyOp5
 70
     1
102
RTVSPropertyOp6
 70
     1
102
RTVSPropertyOp7
 70
     1
102
RTVSPropertyOp8
 70
     1
102
RTVSPropertyOp9
 70
     1
102
RTVSPropertyOp10
 70
     1
102
RTVSPropertyOp11
 70
     1
102
RTVSPropertyOp12
 70
     1
102
RTVSPropertyOp13
 70
     1
102
RTVSPropertyOp14
 70
     1
102
RTVSPropertyOp15
 70
     1
102
RTVSPropertyOp16
 70
     1
102
RTVSPropertyOp17
 70
     1
102
RTVSPropertyOp18
 70
     1
102
RTVSPropertyOp19
 70
     1
102
RTVSPropertyOp20
 70
     1
102
RTVSPropertyOp21
 70
     1
102
RTVSPropertyOp22
 70
     1
102
RTVSPropertyOp23
 70
     1
102
RTVSPropertyOp24
 70
     1
102
RTVSPropertyOp25
 70
     1
102
RTVSPropertyOp26
 70
     1
102
RTVSPropertyOp27
 70
     1
102
RTVSPropertyOp28
 70
     1
102
RTVSPropertyOp29
 70
     1
102
RTVSPropertyOp30
 70
     1
102
RTVSPropertyOp31
 70
     1
102
RTVSPropertyOp32
 70
     1
  0
XRECORD
  5
3170
102
{ACAD_REACTORS
330
316F
102
}
330
316F
100
AcDbXrecord
280
     1
102
RTVSPropertyOp0
 70
     0
102
RTVSPropertyOp1
 70
     0
102
RTVSPropertyOp2
 70
     0
102
RTVSPropertyOp3
 70
     0
102
RTVSPropertyOp4
 70
     0
102
RTVSPropertyOp5
 70
     0
102
RTVSPropertyOp6
 70
     0
102
RTVSPropertyOp7
 70
     0
102
RTVSPropertyOp8
 70
     0
102
RTVSPropertyOp9
 70
     0
102
RTVSPropertyOp10
 70
     0
102
RTVSPropertyOp11
 70
     0
102
RTVSPropertyOp12
 70
     0
102
RTVSPropertyOp13
 70
     0
102
RTVSPropertyOp14
 70
     2
102
RTVSPropertyOp15
 70
     0
102
RTVSPropertyOp16
 70
     0
102
RTVSPropertyOp17
 70
     0
102
RTVSPropertyOp18
 70
     0
102
RTVSPropertyOp19
 70
     0
102
RTVSPropertyOp20
 70
     0
102
RTVSPropertyOp21
 70
     0
102
RTVSPropertyOp22
 70
     0
102
RTVSPropertyOp23
 70
     0
102
RTVSPropertyOp24
 70
     0
102
RTVSPropertyOp25
 70
     0
102
RTVSPropertyOp26
 70
     0
102
RTVSPropertyOp27
 70
     0
102
RTVSPropertyOp28
 70
     0
102
RTVSPropertyOp29
 70
     0
102
RTVSPropertyOp30
 70
     0
102
RTVSPropertyOp31
 70
     0
102
RTVSPropertyOp32
 70
     0
  0
XRECORD
  5
3160
102
{ACAD_REACTORS
330
315F
102
}
330
315F
100
AcDbXrecord
280
     1
102
RTVSPropertyOp0
 70
     1
102
RTVSPropertyOp1
 70
     1
102
RTVSPropertyOp2
 70
     1
102
RTVSPropertyOp3
 70
     1
102
RTVSPropertyOp4
 70
     1
102
RTVSPropertyOp5
 70
     1
102
RTVSPropertyOp6
 70
     1
102
RTVSPropertyOp7
 70
     1
102
RTVSPropertyOp8
 70
     1
102
RTVSPropertyOp9
 70
     1
102
RTVSPropertyOp10
 70
     1
102
RTVSPropertyOp11
 70
     1
102
RTVSPropertyOp12
 70
     1
102
RTVSPropertyOp13
 70
     1
102
RTVSPropertyOp14
 70
     1
102
RTVSPropertyOp15
 70
     1
102
RTVSPropertyOp16
 70
     1
102
RTVSPropertyOp17
 70
     1
102
RTVSPropertyOp18
 70
     1
102
RTVSPropertyOp19
 70
     1
102
RTVSPropertyOp20
 70
     1
102
RTVSPropertyOp21
 70
     1
102
RTVSPropertyOp22
 70
     1
102
RTVSPropertyOp23
 70
     1
102
RTVSPropertyOp24
 70
     1
102
RTVSPropertyOp25
 70
     1
102
RTVSPropertyOp26
 70
     1
102
RTVSPropertyOp27
 70
     1
102
RTVSPropertyOp28
 70
     1
102
RTVSPropertyOp29
 70
     1
102
RTVSPropertyOp30
 70
     1
102
RTVSPropertyOp31
 70
     1
102
RTVSPropertyOp32
 70
     1
  0
XRECORD
  5
3172
102
{ACAD_REACTORS
330
3171
102
}
330
3171
100
AcDbXrecord
280
     1
102
RTVSPropertyOp0
 70
     0
102
RTVSPropertyOp1
 70
     0
102
RTVSPropertyOp2
 70
     0
102
RTVSPropertyOp3
 70
     0
102
RTVSPropertyOp4
 70
     0
102
RTVSPropertyOp5
 70
     0
102
RTVSPropertyOp6
 70
     0
102
RTVSPropertyOp7
 70
     0
102
RTVSPropertyOp8
 70
     0
102
RTVSPropertyOp9
 70
     0
102
RTVSPropertyOp10
 70
     0
102
RTVSPropertyOp11
 70
     0
102
RTVSPropertyOp12
 70
     0
102
RTVSPropertyOp13
 70
     0
102
RTVSPropertyOp14
 70
     2
102
RTVSPropertyOp15
 70
     0
102
RTVSPropertyOp16
 70
     0
102
RTVSPropertyOp17
 70
     0
102
RTVSPropertyOp18
 70
     0
102
RTVSPropertyOp19
 70
     0
102
RTVSPropertyOp20
 70
     0
102
RTVSPropertyOp21
 70
     0
102
RTVSPropertyOp22
 70
     0
102
RTVSPropertyOp23
 70
     0
102
RTVSPropertyOp24
 70
     0
102
RTVSPropertyOp25
 70
     0
102
RTVSPropertyOp26
 70
     0
102
RTVSPropertyOp27
 70
     0
102
RTVSPropertyOp28
 70
     0
102
RTVSPropertyOp29
 70
     0
102
RTVSPropertyOp30
 70
     0
102
RTVSPropertyOp31
 70
     0
102
RTVSPropertyOp32
 70
     0
  0
XRECORD
  5
3158
102
{ACAD_REACTORS
330
3157
102
}
330
3157
100
AcDbXrecord
280
     1
102
RTVSPropertyOp0
 70
     1
102
RTVSPropertyOp1
 70
     1
102
RTVSPropertyOp2
 70
     1
102
RTVSPropertyOp3
 70
     1
102
RTVSPropertyOp4
 70
     1
102
RTVSPropertyOp5
 70
     1
102
RTVSPropertyOp6
 70
     1
102
RTVSPropertyOp7
 70
     1
102
RTVSPropertyOp8
 70
     1
102
RTVSPropertyOp9
 70
     1
102
RTVSPropertyOp10
 70
     1
102
RTVSPropertyOp11
 70
     1
102
RTVSPropertyOp12
 70
     1
102
RTVSPropertyOp13
 70
     1
102
RTVSPropertyOp14
 70
     1
102
RTVSPropertyOp15
 70
     1
102
RTVSPropertyOp16
 70
     1
102
RTVSPropertyOp17
 70
     1
102
RTVSPropertyOp18
 70
     1
102
RTVSPropertyOp19
 70
     1
102
RTVSPropertyOp20
 70
     1
102
RTVSPropertyOp21
 70
     1
102
RTVSPropertyOp22
 70
     1
102
RTVSPropertyOp23
 70
     1
102
RTVSPropertyOp24
 70
     1
102
RTVSPropertyOp25
 70
     1
102
RTVSPropertyOp26
 70
     1
102
RTVSPropertyOp27
 70
     1
102
RTVSPropertyOp28
 70
     1
102
RTVSPropertyOp29
 70
     1
102
RTVSPropertyOp30
 70
     1
102
RTVSPropertyOp31
 70
     1
102
RTVSPropertyOp32
 70
     1
  0
XRECORD
  5
316E
102
{ACAD_REACTORS
330
316D
102
}
330
316D
100
AcDbXrecord
280
     1
102
RTVSPropertyOp0
 70
     1
102
RTVSPropertyOp1
 70
     1
102
RTVSPropertyOp2
 70
     1
102
RTVSPropertyOp3
 70
     1
102
RTVSPropertyOp4
 70
     1
102
RTVSPropertyOp5
 70
     1
102
RTVSPropertyOp6
 70
     1
102
RTVSPropertyOp7
 70
     1
102
RTVSPropertyOp8
 70
     1
102
RTVSPropertyOp9
 70
     1
102
RTVSPropertyOp10
 70
     1
102
RTVSPropertyOp11
 70
     1
102
RTVSPropertyOp12
 70
     1
102
RTVSPropertyOp13
 70
     1
102
RTVSPropertyOp14
 70
     1
102
RTVSPropertyOp15
 70
     1
102
RTVSPropertyOp16
 70
     1
102
RTVSPropertyOp17
 70
     1
102
RTVSPropertyOp18
 70
     1
102
RTVSPropertyOp19
 70
     1
102
RTVSPropertyOp20
 70
     1
102
RTVSPropertyOp21
 70
     1
102
RTVSPropertyOp22
 70
     1
102
RTVSPropertyOp23
 70
     1
102
RTVSPropertyOp24
 70
     1
102
RTVSPropertyOp25
 70
     1
102
RTVSPropertyOp26
 70
     1
102
RTVSPropertyOp27
 70
     1
102
RTVSPropertyOp28
 70
     1
102
RTVSPropertyOp29
 70
     1
102
RTVSPropertyOp30
 70
     1
102
RTVSPropertyOp31
 70
     1
102
RTVSPropertyOp32
 70
     1
  0
XRECORD
  5
316C
102
{ACAD_REACTORS
330
316B
102
}
330
316B
100
AcDbXrecord
280
     1
102
RTVSPropertyOp0
 70
     1
102
RTVSPropertyOp1
 70
     1
102
RTVSPropertyOp2
 70
     1
102
RTVSPropertyOp3
 70
     1
102
RTVSPropertyOp4
 70
     1
102
RTVSPropertyOp5
 70
     1
102
RTVSPropertyOp6
 70
     1
102
RTVSPropertyOp7
 70
     1
102
RTVSPropertyOp8
 70
     1
102
RTVSPropertyOp9
 70
     1
102
RTVSPropertyOp10
 70
     1
102
RTVSPropertyOp11
 70
     1
102
RTVSPropertyOp12
 70
     1
102
RTVSPropertyOp13
 70
     1
102
RTVSPropertyOp14
 70
     1
102
RTVSPropertyOp15
 70
     1
102
RTVSPropertyOp16
 70
     1
102
RTVSPropertyOp17
 70
     1
102
RTVSPropertyOp18
 70
     1
102
RTVSPropertyOp19
 70
     1
102
RTVSPropertyOp20
 70
     1
102
RTVSPropertyOp21
 70
     1
102
RTVSPropertyOp22
 70
     1
102
RTVSPropertyOp23
 70
     1
102
RTVSPropertyOp24
 70
     1
102
RTVSPropertyOp25
 70
     1
102
RTVSPropertyOp26
 70
     1
102
RTVSPropertyOp27
 70
     1
102
RTVSPropertyOp28
 70
     1
102
RTVSPropertyOp29
 70
     1
102
RTVSPropertyOp30
 70
     1
102
RTVSPropertyOp31
 70
     1
102
RTVSPropertyOp32
 70
     1
  0
XRECORD
  5
3166
102
{ACAD_REACTORS
330
3165
102
}
330
3165
100
AcDbXrecord
280
     1
102
RTVSPropertyOp0
 70
     1
102
RTVSPropertyOp1
 70
     1
102
RTVSPropertyOp2
 70
     1
102
RTVSPropertyOp3
 70
     1
102
RTVSPropertyOp4
 70
     1
102
RTVSPropertyOp5
 70
     1
102
RTVSPropertyOp6
 70
     1
102
RTVSPropertyOp7
 70
     1
102
RTVSPropertyOp8
 70
     1
102
RTVSPropertyOp9
 70
     1
102
RTVSPropertyOp10
 70
     1
102
RTVSPropertyOp11
 70
     1
102
RTVSPropertyOp12
 70
     1
102
RTVSPropertyOp13
 70
     1
102
RTVSPropertyOp14
 70
     1
102
RTVSPropertyOp15
 70
     1
102
RTVSPropertyOp16
 70
     1
102
RTVSPropertyOp17
 70
     1
102
RTVSPropertyOp18
 70
     1
102
RTVSPropertyOp19
 70
     1
102
RTVSPropertyOp20
 70
     1
102
RTVSPropertyOp21
 70
     1
102
RTVSPropertyOp22
 70
     1
102
RTVSPropertyOp23
 70
     1
102
RTVSPropertyOp24
 70
     1
102
RTVSPropertyOp25
 70
     1
102
RTVSPropertyOp26
 70
     1
102
RTVSPropertyOp27
 70
     1
102
RTVSPropertyOp28
 70
     1
102
RTVSPropertyOp29
 70
     1
102
RTVSPropertyOp30
 70
     1
102
RTVSPropertyOp31
 70
     1
102
RTVSPropertyOp32
 70
     1
  0
XRECORD
  5
3168
102
{ACAD_REACTORS
330
3167
102
}
330
3167
100
AcDbXrecord
280
     1
102
RTVSPropertyOp0
 70
     1
102
RTVSPropertyOp1
 70
     1
102
RTVSPropertyOp2
 70
     1
102
RTVSPropertyOp3
 70
     1
102
RTVSPropertyOp4
 70
     1
102
RTVSPropertyOp5
 70
     1
102
RTVSPropertyOp6
 70
     1
102
RTVSPropertyOp7
 70
     1
102
RTVSPropertyOp8
 70
     1
102
RTVSPropertyOp9
 70
     1
102
RTVSPropertyOp10
 70
     1
102
RTVSPropertyOp11
 70
     1
102
RTVSPropertyOp12
 70
     1
102
RTVSPropertyOp13
 70
     1
102
RTVSPropertyOp14
 70
     1
102
RTVSPropertyOp15
 70
     1
102
RTVSPropertyOp16
 70
     1
102
RTVSPropertyOp17
 70
     1
102
RTVSPropertyOp18
 70
     1
102
RTVSPropertyOp19
 70
     1
102
RTVSPropertyOp20
 70
     1
102
RTVSPropertyOp21
 70
     1
102
RTVSPropertyOp22
 70
     1
102
RTVSPropertyOp23
 70
     1
102
RTVSPropertyOp24
 70
     1
102
RTVSPropertyOp25
 70
     1
102
RTVSPropertyOp26
 70
     1
102
RTVSPropertyOp27
 70
     1
102
RTVSPropertyOp28
 70
     1
102
RTVSPropertyOp29
 70
     1
102
RTVSPropertyOp30
 70
     1
102
RTVSPropertyOp31
 70
     1
102
RTVSPropertyOp32
 70
     1
  0
XRECORD
  5
315E
102
{ACAD_REACTORS
330
315D
102
}
330
315D
100
AcDbXrecord
280
     1
102
RTVSPropertyOp0
 70
     1
102
RTVSPropertyOp1
 70
     1
102
RTVSPropertyOp2
 70
     1
102
RTVSPropertyOp3
 70
     1
102
RTVSPropertyOp4
 70
     1
102
RTVSPropertyOp5
 70
     1
102
RTVSPropertyOp6
 70
     1
102
RTVSPropertyOp7
 70
     1
102
RTVSPropertyOp8
 70
     1
102
RTVSPropertyOp9
 70
     1
102
RTVSPropertyOp10
 70
     1
102
RTVSPropertyOp11
 70
     1
102
RTVSPropertyOp12
 70
     1
102
RTVSPropertyOp13
 70
     1
102
RTVSPropertyOp14
 70
     1
102
RTVSPropertyOp15
 70
     1
102
RTVSPropertyOp16
 70
     1
102
RTVSPropertyOp17
 70
     1
102
RTVSPropertyOp18
 70
     1
102
RTVSPropertyOp19
 70
     1
102
RTVSPropertyOp20
 70
     1
102
RTVSPropertyOp21
 70
     1
102
RTVSPropertyOp22
 70
     1
102
RTVSPropertyOp23
 70
     1
102
RTVSPropertyOp24
 70
     1
102
RTVSPropertyOp25
 70
     1
102
RTVSPropertyOp26
 70
     1
102
RTVSPropertyOp27
 70
     1
102
RTVSPropertyOp28
 70
     1
102
RTVSPropertyOp29
 70
     1
102
RTVSPropertyOp30
 70
     1
102
RTVSPropertyOp31
 70
     1
102
RTVSPropertyOp32
 70
     1
  0
XRECORD
  5
3152
102
{ACAD_REACTORS
330
3151
102
}
330
3151
100
AcDbXrecord
280
     1
102
RTVSPropertyOp0
 70
     1
102
RTVSPropertyOp1
 70
     1
102
RTVSPropertyOp2
 70
     1
102
RTVSPropertyOp3
 70
     1
102
RTVSPropertyOp4
 70
     1
102
RTVSPropertyOp5
 70
     1
102
RTVSPropertyOp6
 70
     1
102
RTVSPropertyOp7
 70
     1
102
RTVSPropertyOp8
 70
     1
102
RTVSPropertyOp9
 70
     1
102
RTVSPropertyOp10
 70
     1
102
RTVSPropertyOp11
 70
     1
102
RTVSPropertyOp12
 70
     1
102
RTVSPropertyOp13
 70
     1
102
RTVSPropertyOp14
 70
     1
102
RTVSPropertyOp15
 70
     1
102
RTVSPropertyOp16
 70
     1
102
RTVSPropertyOp17
 70
     1
102
RTVSPropertyOp18
 70
     1
102
RTVSPropertyOp19
 70
     1
102
RTVSPropertyOp20
 70
     1
102
RTVSPropertyOp21
 70
     1
102
RTVSPropertyOp22
 70
     1
102
RTVSPropertyOp23
 70
     1
102
RTVSPropertyOp24
 70
     1
102
RTVSPropertyOp25
 70
     1
102
RTVSPropertyOp26
 70
     1
102
RTVSPropertyOp27
 70
     1
102
RTVSPropertyOp28
 70
     1
102
RTVSPropertyOp29
 70
     1
102
RTVSPropertyOp30
 70
     1
102
RTVSPropertyOp31
 70
     1
102
RTVSPropertyOp32
 70
     1
  0
XRECORD
  5
316A
102
{ACAD_REACTORS
330
3169
102
}
330
3169
100
AcDbXrecord
280
     1
102
RTVSPropertyOp0
 70
     1
102
RTVSPropertyOp1
 70
     1
102
RTVSPropertyOp2
 70
     1
102
RTVSPropertyOp3
 70
     1
102
RTVSPropertyOp4
 70
     1
102
RTVSPropertyOp5
 70
     1
102
RTVSPropertyOp6
 70
     1
102
RTVSPropertyOp7
 70
     1
102
RTVSPropertyOp8
 70
     1
102
RTVSPropertyOp9
 70
     1
102
RTVSPropertyOp10
 70
     1
102
RTVSPropertyOp11
 70
     1
102
RTVSPropertyOp12
 70
     1
102
RTVSPropertyOp13
 70
     1
102
RTVSPropertyOp14
 70
     1
102
RTVSPropertyOp15
 70
     1
102
RTVSPropertyOp16
 70
     1
102
RTVSPropertyOp17
 70
     1
102
RTVSPropertyOp18
 70
     1
102
RTVSPropertyOp19
 70
     1
102
RTVSPropertyOp20
 70
     1
102
RTVSPropertyOp21
 70
     1
102
RTVSPropertyOp22
 70
     1
102
RTVSPropertyOp23
 70
     1
102
RTVSPropertyOp24
 70
     1
102
RTVSPropertyOp25
 70
     1
102
RTVSPropertyOp26
 70
     1
102
RTVSPropertyOp27
 70
     1
102
RTVSPropertyOp28
 70
     1
102
RTVSPropertyOp29
 70
     1
102
RTVSPropertyOp30
 70
     1
102
RTVSPropertyOp31
 70
     1
102
RTVSPropertyOp32
 70
     1
  0
ENDSEC
  0
EOF
