  0
SECTION
  2
HEADER
  9
$ACADVER
  1
AC1018
  9
$ACADMAINTVER
 70
   104
  9
$DWGCODEPAGE
  3
ANSI_1252
  9
$LASTSAVEDBY
  1
mlk
  9
$INSBASE
 10
0.0
 20
0.0
 30
0.0
  9
$EXTMIN
 10
-26.51162591137051
 20
-0.0000846498960101
 30
-0.0015258207003583
  9
$EXTMAX
 10
365.0096994952256
 20
19.62565060852271
 30
0.0000000349246037
  9
$LIMMIN
 10
0.0
 20
0.0
  9
$LIMMAX
 10
12.0
 20
9.0
  9
$ORTHOMODE
 70
     0
  9
$REGENMODE
 70
     1
  9
$FILLMODE
 70
     1
  9
$QTEXTMODE
 70
     0
  9
$MIRRTEXT
 70
     0
  9
$LTSCALE
 40
70.0
  9
$ATTMODE
 70
     1
  9
$TEXTSIZE
 40
24.0
  9
$TRACEWID
 40
0.05
  9
$TEXTSTYLE
  7
Standard
  9
$CLAYER
  8
0
  9
$CELTYPE
  6
ByLayer
  9
$CECOLOR
 62
   256
  9
$CELTSCALE
 40
1.0
  9
$DISPSILH
 70
     0
  9
$DIMSCALE
 40
180.0
  9
$DIMASZ
 40
0.18
  9
$DIMEXO
 40
0.0625
  9
$DIMDLI
 40
0.38
  9
$DIMRND
 40
0.0
  9
$DIMDLE
 40
0.0
  9
$DIMEXE
 40
0.18
  9
$DIMTP
 40
0.0
  9
$DIMTM
 40
0.0
  9
$DIMTXT
 40
24.0
  9
$DIMCEN
 40
0.09
  9
$DIMTSZ
 40
0.0
  9
$DIMTOL
 70
     0
  9
$DIMLIM
 70
     0
  9
$DIMTIH
 70
     1
  9
$DIMTOH
 70
     1
  9
$DIMSE1
 70
     0
  9
$DIMSE2
 70
     0
  9
$DIMTAD
 70
     0
  9
$DIMZIN
 70
     0
  9
$DIMBLK
  1

  9
$DIMASO
 70
     1
  9
$DIMSHO
 70
     1
  9
$DIMPOST
  1
\X
  9
$DIMAPOST
  1
M
  9
$DIMALT
 70
     1
  9
$DIMALTD
 70
     2
  9
$DIMALTF
 40
0.0254
  9
$DIMLFAC
 40
1.0
  9
$DIMTOFL
 70
     0
  9
$DIMTVP
 40
0.0
  9
$DIMTIX
 70
     0
  9
$DIMSOXD
 70
     0
  9
$DIMSAH
 70
     0
  9
$DIMBLK1
  1

  9
$DIMBLK2
  1

  9
$DIMSTYLE
  2
Standard
  9
$DIMCLRD
 70
     0
  9
$DIMCLRE
 70
     0
  9
$DIMCLRT
 70
     0
  9
$DIMTFAC
 40
1.0
  9
$DIMGAP
 40
0.09
  9
$DIMJUST
 70
     0
  9
$DIMSD1
 70
     0
  9
$DIMSD2
 70
     0
  9
$DIMTOLJ
 70
     1
  9
$DIMTZIN
 70
     0
  9
$DIMALTZ
 70
     0
  9
$DIMALTTZ
 70
     0
  9
$DIMUPT
 70
     0
  9
$DIMDEC
 70
     1
  9
$DIMTDEC
 70
     1
  9
$DIMALTU
 70
     2
  9
$DIMALTTD
 70
     2
  9
$DIMTXSTY
  7
Standard
  9
$DIMAUNIT
 70
     0
  9
$DIMADEC
 70
     0
  9
$DIMALTRND
 40
0.0
  9
$DIMAZIN
 70
     0
  9
$DIMDSEP
 70
    46
  9
$DIMATFIT
 70
     3
  9
$DIMFRAC
 70
     0
  9
$DIMLDRBLK
  1

  9
$DIMLUNIT
 70
     3
  9
$DIMLWD
 70
    -2
  9
$DIMLWE
 70
    -2
  9
$DIMTMOVE
 70
     0
  9
$LUNITS
 70
     4
  9
$LUPREC
 70
     4
  9
$SKETCHINC
 40
0.1
  9
$FILLETRAD
 40
0.0
  9
$AUNITS
 70
     0
  9
$AUPREC
 70
     0
  9
$MENU
  1
.
  9
$ELEVATION
 40
0.0
  9
$PELEVATION
 40
0.0
  9
$THICKNESS
 40
0.0
  9
$LIMCHECK
 70
     0
  9
$CHAMFERA
 40
0.0
  9
$CHAMFERB
 40
0.0
  9
$CHAMFERC
 40
0.0
  9
$CHAMFERD
 40
0.0
  9
$SKPOLY
 70
     0
  9
$TDCREATE
 40
2453356.423484514
  9
$TDUCREATE
 40
2453356.590151181
  9
$TDUPDATE
 40
2456085.653880278
  9
$TDUUPDATE
 40
2456085.820546945
  9
$TDINDWG
 40
1.4972422106
  9
$TDUSRTIMER
 40
1.4972419560
  9
$USRTIMER
 70
     1
  9
$ANGBASE
 50
0.0
  9
$ANGDIR
 70
     0
  9
$PDMODE
 70
     0
  9
$PDSIZE
 40
0.0
  9
$PLINEWID
 40
0.0
  9
$SPLFRAME
 70
     0
  9
$SPLINETYPE
 70
     6
  9
$SPLINESEGS
 70
     8
  9
$HANDSEED
  5
32E9
  9
$SURFTAB1
 70
     6
  9
$SURFTAB2
 70
     6
  9
$SURFTYPE
 70
     6
  9
$SURFU
 70
     6
  9
$SURFV
 70
     6
  9
$UCSBASE
  2

  9
$UCSNAME
  2

  9
$UCSORG
 10
0.0
 20
0.0
 30
0.0
  9
$UCSXDIR
 10
1.0
 20
0.0
 30
0.0
  9
$UCSYDIR
 10
0.0
 20
1.0
 30
0.0
  9
$UCSORTHOREF
  2

  9
$UCSORTHOVIEW
 70
     0
  9
$UCSORGTOP
 10
0.0
 20
0.0
 30
0.0
  9
$UCSORGBOTTOM
 10
0.0
 20
0.0
 30
0.0
  9
$UCSORGLEFT
 10
0.0
 20
0.0
 30
0.0
  9
$UCSORGRIGHT
 10
0.0
 20
0.0
 30
0.0
  9
$UCSORGFRONT
 10
0.0
 20
0.0
 30
0.0
  9
$UCSORGBACK
 10
0.0
 20
0.0
 30
0.0
  9
$PUCSBASE
  2

  9
$PUCSNAME
  2

  9
$PUCSORG
 10
0.0
 20
0.0
 30
0.0
  9
$PUCSXDIR
 10
1.0
 20
0.0
 30
0.0
  9
$PUCSYDIR
 10
0.0
 20
1.0
 30
0.0
  9
$PUCSORTHOREF
  2

  9
$PUCSORTHOVIEW
 70
     0
  9
$PUCSORGTOP
 10
0.0
 20
0.0
 30
0.0
  9
$PUCSORGBOTTOM
 10
0.0
 20
0.0
 30
0.0
  9
$PUCSORGLEFT
 10
0.0
 20
0.0
 30
0.0
  9
$PUCSORGRIGHT
 10
0.0
 20
0.0
 30
0.0
  9
$PUCSORGFRONT
 10
0.0
 20
0.0
 30
0.0
  9
$PUCSORGBACK
 10
0.0
 20
0.0
 30
0.0
  9
$USERI1
 70
     0
  9
$USERI2
 70
     0
  9
$USERI3
 70
     0
  9
$USERI4
 70
     0
  9
$USERI5
 70
     0
  9
$USERR1
 40
0.0
  9
$USERR2
 40
0.0
  9
$USERR3
 40
0.0
  9
$USERR4
 40
0.0
  9
$USERR5
 40
0.0
  9
$WORLDVIEW
 70
     1
  9
$SHADEDGE
 70
     3
  9
$SHADEDIF
 70
    70
  9
$TILEMODE
 70
     1
  9
$MAXACTVP
 70
    64
  9
$PINSBASE
 10
0.0
 20
0.0
 30
0.0
  9
$PLIMCHECK
 70
     0
  9
$PEXTMIN
 10
1.000000000000000E+20
 20
1.000000000000000E+20
 30
1.000000000000000E+20
  9
$PEXTMAX
 10
-1.000000000000000E+20
 20
-1.000000000000000E+20
 30
-1.000000000000000E+20
  9
$PLIMMIN
 10
0.0
 20
0.0
  9
$PLIMMAX
 10
12.0
 20
9.0
  9
$UNITMODE
 70
     0
  9
$VISRETAIN
 70
     1
  9
$PLINEGEN
 70
     0
  9
$PSLTSCALE
 70
     1
  9
$TREEDEPTH
 70
  3020
  9
$CMLSTYLE
  2
Standard
  9
$CMLJUST
 70
     0
  9
$CMLSCALE
 40
1.0
  9
$PROXYGRAPHICS
 70
     1
  9
$MEASUREMENT
 70
     0
  9
$CELWEIGHT
370
    -1
  9
$ENDCAPS
280
     0
  9
$JOINSTYLE
280
     0
  9
$LWDISPLAY
290
     0
  9
$INSUNITS
 70
     1
  9
$HYPERLINKBASE
  1

  9
$STYLESHEET
  1
HLV LAYOUTS HP 5100.CTB
  9
$XEDIT
290
     1
  9
$CEPSNTYPE
380
     0
  9
$PSTYLEMODE
290
     1
  9
$FINGERPRINTGUID
  2
{B95F5779-B665-412D-856F-5D4CCA842D26}
  9
$VERSIONGUID
  2
{849F1F36-2BC7-4A18-8CE1-CADF193591F8}
  9
$EXTNAMES
290
     1
  9
$PSVPSCALE
 40
0.0
  9
$OLESTARTUP
290
     0
  9
$SORTENTS
280
   127
  9
$INDEXCTL
280
     0
  9
$HIDETEXT
280
     1
  9
$XCLIPFRAME
290
     0
  9
$HALOGAP
280
     0
  9
$OBSCOLOR
 70
   257
  9
$OBSLTYPE
280
     0
  9
$INTERSECTIONDISPLAY
280
     0
  9
$INTERSECTIONCOLOR
 70
   257
  9
$DIMASSOC
280
     2
  9
$PROJECTNAME
  1

  0
ENDSEC
  0
SECTION
  2
CLASSES
  0
CLASS
  1
ACDBDICTIONARYWDFLT
  2
AcDbDictionaryWithDefault
  3
ObjectDBX Classes
 90
        0
 91
        1
280
     0
281
     0
  0
CLASS
  1
TABLESTYLE
  2
AcDbTableStyle
  3
ObjectDBX Classes
 90
     4095
 91
        1
280
     0
281
     0
  0
CLASS
  1
SORTENTSTABLE
  2
AcDbSortentsTable
  3
ObjectDBX Classes
 90
        0
 91
        9
280
     0
281
     0
  0
CLASS
  1
DIMASSOC
  2
AcDbDimAssoc
  3
"AcDbDimAssoc|Product Desc:     AcDim ARX App For Dimension|Company:          Autodesk, Inc.|WEB Address:      www.autodesk.com"
 90
        0
 91
        0
280
     0
281
     0
  0
CLASS
  1
DICTIONARYVAR
  2
AcDbDictionaryVar
  3
ObjectDBX Classes
 90
        0
 91
        8
280
     0
281
     0
  0
CLASS
  1
MATERIAL
  2
AcDbMaterial
  3
ObjectDBX Classes
 90
     1153
 91
        3
280
     0
281
     0
  0
CLASS
  1
VISUALSTYLE
  2
AcDbVisualStyle
  3
ObjectDBX Classes
 90
     4095
 91
       24
280
     0
281
     0
  0
CLASS
  1
SCALE
  2
AcDbScale
  3
ObjectDBX Classes
 90
     1153
 91
       17
280
     0
281
     0
  0
CLASS
  1
MLEADERSTYLE
  2
AcDbMLeaderStyle
  3
ACDB_MLEADERSTYLE_CLASS
 90
     4095
 91
        1
280
     0
281
     0
  0
CLASS
  1
CELLSTYLEMAP
  2
AcDbCellStyleMap
  3
ObjectDBX Classes
 90
     1152
 91
        2
280
     0
281
     0
  0
CLASS
  1
AEC_REFEDIT_STATUS_TRACKER
  2
AecDbRefEditStatusTracker
  3
AecArchBase60|Product Desc: Autodesk Architectural Desktop 2007 |Company: Autodesk,Inc. |WEB Address: www.autodesk.com
 90
      129
 91
        1
280
     0
281
     0
  0
CLASS
  1
NPOCOLLECTION
  2
AcDbImpNonPersistentObjectsCollection
  3
ObjectDBX Classes
 90
     1153
 91
        1
280
     0
281
     0
  0
ENDSEC
  0
SECTION
  2
TABLES
  0
TABLE
  2
VPORT
  5
8
102
{ACAD_XDICTIONARY
360
2D70
102
}
330
0
100
AcDbSymbolTable
 70
     1
  0
VPORT
  5
2CB0
330
8
100
AcDbSymbolTableRecord
100
AcDbViewportTableRecord
  2
*Active
 70
     0
 10
0.0
 20
0.0
 11
1.0
 21
1.0
 12
169.2490367919275
 22
9.812782979313354
 13
0.0
 23
0.0
 14
0.5
 24
0.5
 15
0.5
 25
0.5
 16
0.0
 26
0.0
 36
1.0
 17
0.0
 27
0.0
 37
0.0
 40
171.1330169700533
 41
2.295042321644498
 42
50.0
 43
0.0
 44
0.0
 50
0.0
 51
0.0
 71
     0
 72
  1000
 73
     1
 74
     3
 75
     0
 76
     0
 77
     0
 78
     0
281
     0
 65
     1
110
0.0
120
0.0
130
0.0
111
1.0
121
0.0
131
0.0
112
0.0
122
1.0
132
0.0
 79
     0
146
0.0
  0
ENDTAB
  0
TABLE
  2
LTYPE
  5
5
330
0
100
AcDbSymbolTable
 70
     3
  0
LTYPE
  5
14
330
5
100
AcDbSymbolTableRecord
100
AcDbLinetypeTableRecord
  2
ByBlock
 70
     0
  3

 72
    65
 73
     0
 40
0.0
  0
LTYPE
  5
15
330
5
100
AcDbSymbolTableRecord
100
AcDbLinetypeTableRecord
  2
ByLayer
 70
     0
  3

 72
    65
 73
     0
 40
0.0
  0
LTYPE
  5
16
330
5
100
AcDbSymbolTableRecord
100
AcDbLinetypeTableRecord
  2
Continuous
 70
     0
  3
Solid line
 72
    65
 73
     0
 40
0.0
  0
LTYPE
  5
191
330
5
100
AcDbSymbolTableRecord
100
AcDbLinetypeTableRecord
  2
CENTER
 70
     0
  3
Center ____ _ ____ _ ____ _ ____ _ ____ _ ____
 72
    65
 73
     4
 40
2.0
 49
1.25
 74
     0
 49
-0.25
 74
     0
 49
0.25
 74
     0
 49
-0.25
 74
     0
  0
LTYPE
  5
C77
330
5
100
AcDbSymbolTableRecord
100
AcDbLinetypeTableRecord
  2
HIDDEN
 70
     0
  3
Hidden __ __ __ __ __ __ __ __ __ __ __ __ __ _
 72
    65
 73
     2
 40
0.375
 49
0.25
 74
     0
 49
-0.125
 74
     0
  0
ENDTAB
  0
TABLE
  2
LAYER
  5
2
102
{ACAD_XDICTIONARY
360
179
102
}
330
0
100
AcDbSymbolTable
 70
    11
  0
LAYER
  5
10
102
{ACAD_XDICTIONARY
360
2DB3
102
}
330
2
100
AcDbSymbolTableRecord
100
AcDbLayerTableRecord
  2
0
 70
     0
 62
     7
  6
Continuous
370
    -3
390
F
  0
LAYER
  5
35
330
2
100
AcDbSymbolTableRecord
100
AcDbLayerTableRecord
  2
Defpoints
 70
     0
 62
     7
  6
Continuous
290
     0
370
    -3
390
F
  0
LAYER
  5
15D
102
{ACAD_XDICTIONARY
360
2DB5
102
}
330
2
100
AcDbSymbolTableRecord
100
AcDbLayerTableRecord
  2
Center Lines
 70
     0
 62
     2
  6
CENTER
370
    -3
390
F
  0
LAYER
  5
654
102
{ACAD_XDICTIONARY
360
2DB9
102
}
330
2
100
AcDbSymbolTableRecord
100
AcDbLayerTableRecord
  2
Radiant Tubes
 70
     0
 62
     7
  6
HIDDEN
370
    -3
390
F
  0
LAYER
  5
C78
102
{ACAD_XDICTIONARY
360
2DBB
102
}
330
2
100
AcDbSymbolTableRecord
100
AcDbLayerTableRecord
  2
COMBUSTION Radiant Tubes
 70
     0
 62
     1
  6
HIDDEN
370
    -3
390
F
  0
LAYER
  5
C79
102
{ACAD_XDICTIONARY
360
2DBD
102
}
330
2
100
AcDbSymbolTableRecord
100
AcDbLayerTableRecord
  2
COMBUSTION Reflector
 70
     0
 62
     1
  6
Continuous
370
    -3
390
F
1001
AcAecLayerStandard
1000

1000

  0
LAYER
  5
C7A
102
{ACAD_XDICTIONARY
360
2DBF
102
}
330
2
100
AcDbSymbolTableRecord
100
AcDbLayerTableRecord
  2
BURNER Radiant Tubes
 70
     0
 62
     3
  6
HIDDEN
370
    -3
390
F
  0
LAYER
  5
C7C
102
{ACAD_XDICTIONARY
360
2DC1
102
}
330
2
100
AcDbSymbolTableRecord
100
AcDbLayerTableRecord
  2
Reflector
 70
     0
 62
     7
  6
Continuous
370
    -3
390
F
1001
AcAecLayerStandard
1000

1000

  0
LAYER
  5
2F94
330
2
100
AcDbSymbolTableRecord
100
AcDbLayerTableRecord
  2
V3 Burner Box
 70
     0
 62
   191
  6
CENTER
370
    -3
390
F
1001
AcAecLayerStandard
1000

1000

1001
AcCmTransparency
1071
        0
  0
LAYER
  5
30BF
102
{ACAD_XDICTIONARY
360
30C0
102
}
330
2
100
AcDbSymbolTableRecord
100
AcDbLayerTableRecord
  2
Burners
 70
     0
 62
     4
  6
Continuous
370
    -3
390
F
  0
LAYER
  5
30C1
102
{ACAD_XDICTIONARY
360
30C2
102
}
330
2
100
AcDbSymbolTableRecord
100
AcDbLayerTableRecord
  2
Burner
 70
     0
 62
     4
  6
Continuous
370
    -3
390
F
  0
ENDTAB
  0
TABLE
  2
STYLE
  5
3
330
0
100
AcDbSymbolTable
 70
     1
  0
STYLE
  5
11
330
3
100
AcDbSymbolTableRecord
100
AcDbTextStyleTableRecord
  2
Standard
 70
     0
 40
24.0
 41
1.0
 50
0.0
 71
     0
 42
24.0
  3
arial.ttf
  4

1001
ACAD
1000
Arial
1071
       34
  0
ENDTAB
  0
TABLE
  2
VIEW
  5
6
330
0
100
AcDbSymbolTable
 70
     0
  0
ENDTAB
  0
TABLE
  2
UCS
  5
7
330
0
100
AcDbSymbolTable
 70
     0
  0
ENDTAB
  0
TABLE
  2
APPID
  5
9
330
0
100
AcDbSymbolTable
 70
     9
  0
APPID
  5
12
330
9
100
AcDbSymbolTableRecord
100
AcDbRegAppTableRecord
  2
ACAD
 70
     0
  0
APPID
  5
4F
330
9
100
AcDbSymbolTableRecord
100
AcDbRegAppTableRecord
  2
ACAD_DSTYLE_DIMTEXT_FILL
 70
     0
  0
APPID
  5
178
330
9
100
AcDbSymbolTableRecord
100
AcDbRegAppTableRecord
  2
AcAecLayerStandard
 70
     0
  0
APPID
  5
3A2
330
9
100
AcDbSymbolTableRecord
100
AcDbRegAppTableRecord
  2
ACAD_PSEXT
 70
     0
  0
APPID
  5
1A58
330
9
100
AcDbSymbolTableRecord
100
AcDbRegAppTableRecord
  2
ACAD_EXEMPT_FROM_CAD_STANDARDS
 70
     0
  0
APPID
  5
2D05
330
9
100
AcDbSymbolTableRecord
100
AcDbRegAppTableRecord
  2
ACAD_DSTYLE_DIMJAG
 70
     0
  0
APPID
  5
2D06
330
9
100
AcDbSymbolTableRecord
100
AcDbRegAppTableRecord
  2
ACAD_DSTYLE_DIMTALN
 70
     0
  0
APPID
  5
2DA6
330
9
100
AcDbSymbolTableRecord
100
AcDbRegAppTableRecord
  2
ACAD_MLEADERVER
 70
     0
  0
APPID
  5
2F95
330
9
100
AcDbSymbolTableRecord
100
AcDbRegAppTableRecord
  2
AcCmTransparency
 70
     0
  0
ENDTAB
  0
TABLE
  2
DIMSTYLE
  5
A
330
0
100
AcDbSymbolTable
 70
     1
100
AcDbDimStyleTable
 71
     1
340
2B
  0
DIMSTYLE
105
2B
330
A
100
AcDbSymbolTableRecord
100
AcDbDimStyleTableRecord
  2
Standard
 70
     0
271
     3
272
     3
340
11
  0
ENDTAB
  0
TABLE
  2
BLOCK_RECORD
  5
1
330
0
100
AcDbSymbolTable
 70
    10
  0
BLOCK_RECORD
  5
23
102
{ACAD_XDICTIONARY
360
32
102
}
330
1
100
AcDbSymbolTableRecord
100
AcDbBlockTableRecord
  2
*Model_Space
340
26
  0
BLOCK_RECORD
  5
1F
330
1
100
AcDbSymbolTableRecord
100
AcDbBlockTableRecord
  2
*Paper_Space
340
22
  0
BLOCK_RECORD
  5
27
330
1
100
AcDbSymbolTableRecord
100
AcDbBlockTableRecord
  2
*Paper_Space0
340
2A
  0
BLOCK_RECORD
  5
161
330
1
100
AcDbSymbolTableRecord
100
AcDbBlockTableRecord
  2
layers
340
0
102
{BLKREFS
331
164
331
47F
331
67A
331
8ED
331
1779
331
195F
331
1964
331
1C38
331
1C5C
331
1CA2
331
1CC6
331
1CDA
331
2116
331
21A1
331
21F9
331
222E
331
2277
331
23BF
331
2432
331
245F
331
2A47
331
2B40
331
2B73
331
2B78
331
2F99
331
2E3A
331
2E4F
331
2FF8
331
3074
331
30C5
331
3099
331
3113
102
}
1001
ACAD
1000
DesignCenter Data
1002
{
1070
     1
1070
     1
1002
}
  0
BLOCK_RECORD
  5
2E34
102
{ACAD_XDICTIONARY
360
2E35
102
}
330
1
100
AcDbSymbolTableRecord
100
AcDbBlockTableRecord
  2
4 in - 10 ft Tube-RR
340
0
102
{BLKREFS
331
2FA9
102
}
1001
ACAD
1000
DesignCenter Data
1002
{
1070
     1
1070
     1
1002
}
  0
BLOCK_RECORD
  5
2E4B
102
{ACAD_XDICTIONARY
360
2E4C
102
}
330
1
100
AcDbSymbolTableRecord
100
AcDbBlockTableRecord
  2
4 in V3 BURNER BOX
340
0
102
{BLKREFS
331
2FAA
102
}
1001
ACAD
1000
DesignCenter Data
1002
{
1070
     1
1070
     1
1002
}
  0
BLOCK_RECORD
  5
2F96
102
{ACAD_XDICTIONARY
360
2FAB
102
}
330
1
100
AcDbSymbolTableRecord
100
AcDbBlockTableRecord
  2
4 in - 20 ft Assy
340
0
1001
ACAD
1000
DesignCenter Data
1002
{
1070
     1
1070
     1
1002
}
  0
BLOCK_RECORD
  5
2FF2
102
{ACAD_XDICTIONARY
360
2FF3
102
}
330
1
100
AcDbSymbolTableRecord
100
AcDbBlockTableRecord
  2
4 in - 20 ft Tube-RR
340
0
102
{BLKREFS
331
30D5
331
3123
102
}
1001
ACAD
1000
DesignCenter Data
1002
{
1070
     1
1070
     1
1002
}
  0
BLOCK_RECORD
  5
301A
102
{ACAD_XDICTIONARY
360
302F
102
}
330
1
100
AcDbSymbolTableRecord
100
AcDbBlockTableRecord
  2
4 in - 30 ft Assy
340
0
1001
ACAD
1000
DesignCenter Data
1002
{
1070
     1
1070
     1
1002
}
  0
BLOCK_RECORD
  5
306E
102
{ACAD_XDICTIONARY
360
306F
102
}
330
1
100
AcDbSymbolTableRecord
100
AcDbBlockTableRecord
  2
BURNER BOX
340
0
1001
ACAD
1000
DesignCenter Data
1002
{
1070
     1
1070
     1
1002
}
  0
BLOCK_RECORD
  5
3094
102
{ACAD_XDICTIONARY
360
3095
102
}
330
1
100
AcDbSymbolTableRecord
100
AcDbBlockTableRecord
  2
4 in BURNER BOX
340
0
102
{BLKREFS
331
30D6
331
3124
102
}
1001
ACAD
1000
DesignCenter Data
1002
{
1070
     1
1070
     1
1002
}
  0
BLOCK_RECORD
  5
3110
102
{ACAD_XDICTIONARY
360
32AE
102
}
330
1
100
AcDbSymbolTableRecord
100
AcDbBlockTableRecord
  2
SV_4 in - 30 ft Assy
340
0
102
{BLKREFS
331
32B2
102
}
1001
ACAD
1000
DesignCenter Data
1002
{
1070
     1
1070
     1
1002
}
  0
ENDTAB
  0
ENDSEC
  0
SECTION
  2
BLOCKS
  0
BLOCK
  5
24
330
23
100
AcDbEntity
  8
0
100
AcDbBlockBegin
  2
*Model_Space
 70
     0
 10
0.0
 20
0.0
 30
0.0
  3
*Model_Space
  1

  0
ENDBLK
  5
25
330
23
100
AcDbEntity
  8
0
100
AcDbBlockEnd
  0
BLOCK
  5
20
330
1F
100
AcDbEntity
 67
     1
  8
0
100
AcDbBlockBegin
  2
*Paper_Space
 70
     0
 10
0.0
 20
0.0
 30
0.0
  3
*Paper_Space
  1

  0
ENDBLK
  5
21
330
1F
100
AcDbEntity
 67
     1
  8
0
100
AcDbBlockEnd
  0
BLOCK
  5
28
330
27
100
AcDbEntity
 67
     1
  8
0
100
AcDbBlockBegin
  2
*Paper_Space0
 70
     0
 10
0.0
 20
0.0
 30
0.0
  3
*Paper_Space0
  1

  0
ENDBLK
  5
29
330
27
100
AcDbEntity
 67
     1
  8
0
100
AcDbBlockEnd
  0
BLOCK
  5
162
330
161
100
AcDbEntity
  8
0
100
AcDbBlockBegin
  2
layers
 70
     0
 10
0.0
 20
0.0
 30
0.0
  3
layers
  1

  0
ENDBLK
  5
163
330
161
100
AcDbEntity
  8
0
100
AcDbBlockEnd
  0
BLOCK
  5
2E37
330
2E34
100
AcDbEntity
  8
0
100
AcDbBlockBegin
  2
4 in - 10 ft Tube-RR
 70
     0
 10
0.0
 20
0.0
 30
0.0
  3
4 in - 10 ft Tube-RR
  1

  0
LINE
  5
2E38
330
2E34
100
AcDbEntity
  8
Center Lines
100
AcDbLine
 10
111.9291529401175
 20
40.00676650569547
 30
0.0
 11
-9.587724760467622
 21
40.00676650569551
 31
0.0
  0
LINE
  5
2E39
330
2E34
100
AcDbEntity
  8
Radiant Tubes
100
AcDbLine
 10
111.9291529401175
 20
38.01676650569551
 30
0.0
 11
-4.070847059882465
 21
38.0167665056955
 31
0.0
  0
INSERT
  5
2E3A
330
2E34
100
AcDbEntity
  8
0
100
AcDbBlockReference
  2
layers
 10
0.8387486649539821
 20
-3.611935436597064
 30
0.0
  0
LINE
  5
2E3B
330
2E34
100
AcDbEntity
  8
Reflector
100
AcDbLine
 10
111.9291529401175
 20
33.3817665056955
 30
0.0
 11
-8.070847059882467
 21
33.38176650569551
 31
0.0
  0
LINE
  5
2E3C
330
2E34
100
AcDbEntity
  8
Reflector
100
AcDbLine
 10
111.9291529401175
 20
38.7567665056955
 30
0.0
 11
-8.070847059882467
 21
38.75676650569551
 31
0.0
  0
LINE
  5
2E3D
330
2E34
100
AcDbEntity
  8
Reflector
100
AcDbLine
 10
111.9291529401175
 20
46.63176650569549
 30
0.0
 11
-8.070847059882467
 21
46.63176650569549
 31
0.0
  0
LINE
  5
2E3E
330
2E34
100
AcDbEntity
  8
Reflector
100
AcDbLine
 10
-8.070847059882467
 20
33.38176650569551
 30
0.0
 11
-8.070847059882467
 21
46.63176650569549
 31
0.0
  0
LINE
  5
2E3F
330
2E34
100
AcDbEntity
  8
Reflector
100
AcDbLine
 10
111.9291529401175
 20
41.25676650569547
 30
0.0
 11
-8.070847059882481
 21
41.25676650569551
 31
0.0
  0
LINE
  5
2E40
330
2E34
100
AcDbEntity
  8
Radiant Tubes
100
AcDbLine
 10
-4.155847059882461
 20
38.10176650569551
 30
0.0
 11
-8.070847059882467
 21
38.10176650569551
 31
0.0
  0
LINE
  5
2E41
330
2E34
100
AcDbEntity
  8
Radiant Tubes
100
AcDbLine
 10
-4.155847059882475
 20
41.91176650569551
 30
0.0
 11
-8.070847059882467
 21
41.91176650569551
 31
0.0
  0
LINE
  5
2E42
330
2E34
100
AcDbEntity
  8
Radiant Tubes
100
AcDbLine
 10
111.9291529401175
 20
41.99676650569549
 30
0.0
 11
-4.070847059882465
 21
41.99676650569549
 31
0.0
  0
LINE
  5
2E43
330
2E34
100
AcDbEntity
  8
Radiant Tubes
100
AcDbLine
 10
-4.070847059882465
 20
41.99676650569549
 30
0.0
 11
-4.070847059882465
 21
38.0167665056955
 31
0.0
  0
LINE
  5
2E44
330
2E34
100
AcDbEntity
  8
Radiant Tubes
100
AcDbLine
 10
-4.155847059882475
 20
41.91176650569551
 30
0.0
 11
-4.070847059882465
 21
41.99676650569549
 31
0.0
  0
LINE
  5
2E45
330
2E34
100
AcDbEntity
  8
Radiant Tubes
100
AcDbLine
 10
-4.155847059882475
 20
41.91176650569551
 30
0.0
 11
-4.155847059882461
 21
38.10176650569551
 31
0.0
  0
LINE
  5
2E46
330
2E34
100
AcDbEntity
  8
Radiant Tubes
100
AcDbLine
 10
-4.155847059882461
 20
38.10176650569551
 30
0.0
 11
-4.070847059882465
 21
38.0167665056955
 31
0.0
  0
LINE
  5
2E47
330
2E34
100
AcDbEntity
  8
Radiant Tubes
100
AcDbLine
 10
-8.070847059882467
 20
38.10176650569551
 30
0.0
 11
-8.070847059882467
 21
41.91176650569551
 31
0.0
  0
LINE
  5
2E48
330
2E34
100
AcDbEntity
  8
Reflector
100
AcDbLine
 10
111.9291529401175
 20
33.38176650569558
 30
0.0
 11
111.9291529401175
 21
46.63176650569556
 31
0.0
  0
LINE
  5
2E49
330
2E34
100
AcDbEntity
  8
Radiant Tubes
100
AcDbLine
 10
111.9291529401175
 20
38.01676650569551
 30
0.0
 11
111.9291529401175
 21
41.99676650569549
 31
0.0
  0
ENDBLK
  5
2E4A
330
2E34
100
AcDbEntity
  8
0
100
AcDbBlockEnd
  0
BLOCK
  5
2E4E
330
2E4B
100
AcDbEntity
  8
0
100
AcDbBlockBegin
  2
4 in V3 BURNER BOX
 70
     0
 10
0.0
 20
0.0
 30
0.0
  3
4 in V3 BURNER BOX
  1

  0
INSERT
  5
2E4F
330
2E4B
100
AcDbEntity
  8
0
100
AcDbBlockReference
  2
layers
 10
0.8387486649539821
 20
-3.611935436597064
 30
0.0
  0
LINE
  5
2E50
330
2E4B
100
AcDbEntity
  8
Center Lines
100
AcDbLine
 10
15.01757864838842
 20
42.94549349941227
 30
0.0
 11
44.01570792097589
 21
42.94549349941227
 31
0.0
  0
ARC
  5
2E51
330
2E4B
100
AcDbEntity
  8
V3 Burner Box
100
AcDbCircle
 10
27.50624855527787
 20
46.41594553648256
 30
0.0
 40
0.0933823529411774
100
AcDbArc
 50
286.260204708307
 51
0.0
  0
ARC
  5
2E52
330
2E4B
100
AcDbEntity
  8
V3 Burner Box
100
AcDbCircle
 10
27.50624855527787
 20
47.56766122275708
 30
0.0
 40
0.0933823529411774
100
AcDbArc
 50
0.0
 51
73.73979529169303
  0
ARC
  5
2E53
330
2E4B
100
AcDbEntity
  8
V3 Burner Box
100
AcDbCircle
 10
31.9387975748857
 20
46.41594553648256
 30
0.0
 40
0.093382352941179
100
AcDbArc
 50
180.0
 51
306.6812713094355
  0
ARC
  5
2E54
330
2E4B
100
AcDbEntity
  8
V3 Burner Box
100
AcDbCircle
 10
31.9387975748857
 20
47.56766122275708
 30
0.0
 40
0.093382352941179
100
AcDbArc
 50
53.31872869056703
 51
180.0
  0
ARC
  5
2E55
330
2E4B
100
AcDbEntity
  8
V3 Burner Box
100
AcDbCircle
 10
27.63075835919944
 20
46.43150926197278
 30
0.0
 40
0.031127450980394
100
AcDbArc
 50
90.0
 51
180.0
  0
ARC
  5
2E56
330
2E4B
100
AcDbEntity
  8
V3 Burner Box
100
AcDbCircle
 10
27.63075835919944
 20
47.5520974972669
 30
0.0
 40
0.031127450980394
100
AcDbArc
 50
180.0
 51
270.0
  0
ARC
  5
2E57
330
2E4B
100
AcDbEntity
  8
V3 Burner Box
100
AcDbCircle
 10
31.81428777096413
 20
46.43150926197278
 30
0.0
 40
0.031127450980394
100
AcDbArc
 50
0.0
 51
90.0
  0
ARC
  5
2E58
330
2E4B
100
AcDbEntity
  8
V3 Burner Box
100
AcDbCircle
 10
31.81428777096413
 20
47.5520974972669
 30
0.0
 40
0.031127450980394
100
AcDbArc
 50
270.0
 51
0.0
  0
LINE
  5
2E59
330
2E4B
100
AcDbEntity
  8
V3 Burner Box
100
AcDbLine
 10
30.97384647060564
 20
46.46263659903581
 30
0.0
 11
31.81428773963873
 21
46.46263659903581
 31
0.0
  0
LINE
  5
2E5A
330
2E4B
100
AcDbEntity
  8
V3 Burner Box
100
AcDbLine
 10
31.81428773963873
 20
47.52096995153613
 30
0.0
 11
30.97384647060564
 21
47.52096995153613
 31
0.0
  0
LINE
  5
2E5B
330
2E4B
100
AcDbEntity
  8
V3 Burner Box
100
AcDbLine
 10
27.63075810086216
 20
46.46263659903581
 30
0.0
 11
28.47119936989523
 21
46.46263659903581
 31
0.0
  0
LINE
  5
2E5C
330
2E4B
100
AcDbEntity
  8
V3 Burner Box
100
AcDbLine
 10
28.47119936989523
 20
47.52096995153613
 30
0.0
 11
27.63075810086216
 21
47.52096995153613
 31
0.0
  0
LINE
  5
2E5D
330
2E4B
100
AcDbEntity
  8
V3 Burner Box
100
AcDbLine
 10
28.47119936989523
 20
46.52489160524631
 30
0.0
 11
30.97384647060564
 21
46.52489160524631
 31
0.0
  0
LINE
  5
2E5E
330
2E4B
100
AcDbEntity
  8
V3 Burner Box
100
AcDbLine
 10
30.97384647060564
 20
47.45871523750529
 30
0.0
 11
28.47119936989523
 21
47.45871523750529
 31
0.0
  0
LINE
  5
2E5F
330
2E4B
100
AcDbEntity
  8
V3 Burner Box
100
AcDbLine
 10
16.73565254725383
 20
42.10479361488306
 30
0.0
 11
16.77176010608394
 21
42.10479361488306
 31
0.0
  0
LINE
  5
2E60
330
2E4B
100
AcDbEntity
  8
V3 Burner Box
100
AcDbLine
 10
16.77176010608394
 20
43.78567592468389
 30
0.0
 11
16.73565254725383
 21
43.78567592468389
 31
0.0
  0
LINE
  5
2E61
330
2E4B
100
AcDbEntity
  8
V3 Burner Box
100
AcDbLine
 10
16.58001546999708
 20
42.16829359850229
 30
0.0
 11
16.67339783322299
 21
42.16829359850229
 31
0.0
  0
LINE
  5
2E62
330
2E4B
100
AcDbEntity
  8
V3 Burner Box
100
AcDbLine
 10
16.67339783322299
 20
43.72217593193403
 30
0.0
 11
16.58001546999708
 21
43.72217593193403
 31
0.0
  0
LINE
  5
2E63
330
2E4B
100
AcDbEntity
  8
V3 Burner Box
100
AcDbLine
 10
16.67339783322299
 20
42.2604308382296
 30
0.0
 11
16.73565254725383
 21
42.2604308382296
 31
0.0
  0
LINE
  5
2E64
330
2E4B
100
AcDbEntity
  8
V3 Burner Box
100
AcDbLine
 10
16.73565254725383
 20
43.63003867394552
 30
0.0
 11
16.67339783322299
 21
43.63003867394552
 31
0.0
  0
ARC
  5
2E65
330
2E4B
100
AcDbEntity
  8
V3 Burner Box
100
AcDbCircle
 10
16.54888777096414
 20
42.3333177382113
 30
0.0
 40
0.0311274509803895
100
AcDbArc
 50
0.0
 51
69.86369657175242
  0
ARC
  5
2E66
330
2E4B
100
AcDbEntity
  8
V3 Burner Box
100
AcDbCircle
 10
16.54888777096414
 20
43.5571517661264
 30
0.0
 40
0.0311274509803943
100
AcDbArc
 50
290.1363034282372
 51
0.0
  0
LINE
  5
2E67
330
2E4B
100
AcDbEntity
  8
V3 Burner Box
100
AcDbLine
 10
16.55960380095783
 20
43.5279269329216
 30
0.0
 11
16.21167454298526
 21
43.40035305184243
 31
0.0
  0
LINE
  5
2E68
330
2E4B
100
AcDbEntity
  8
V3 Burner Box
100
AcDbLine
 10
16.21167454298526
 20
42.49011646033268
 30
0.0
 11
16.55960380095783
 21
42.36254250620861
 31
0.0
  0
ARC
  5
2E69
330
2E4B
100
AcDbEntity
  8
V3 Burner Box
100
AcDbCircle
 10
16.20095901632058
 20
42.46089161491393
 30
0.0
 40
0.0311274509803959
100
AcDbArc
 50
69.86369657175242
 51
90.0
  0
ARC
  5
2E6A
330
2E4B
100
AcDbEntity
  8
V3 Burner Box
100
AcDbCircle
 10
16.20095901632058
 20
43.42957788942375
 30
0.0
 40
0.0311274509803959
100
AcDbArc
 50
270.0
 51
290.1363034282476
  0
LINE
  5
2E6B
330
2E4B
100
AcDbEntity
  8
V3 Burner Box
100
AcDbLine
 10
15.83295656418988
 20
42.49201913409139
 30
0.0
 11
16.20095914718872
 21
42.49201913409139
 31
0.0
  0
LINE
  5
2E6C
330
2E4B
100
AcDbEntity
  8
V3 Burner Box
100
AcDbLine
 10
16.20095914718872
 20
43.39845045112862
 30
0.0
 11
15.83295656418988
 21
43.39845045112862
 31
0.0
  0
LINE
  5
2E6D
330
2E4B
100
AcDbEntity
  8
V3 Burner Box
100
AcDbLine
 10
15.83295656418988
 20
43.36856807152197
 30
0.0
 11
15.33491709886533
 21
43.36856807152197
 31
0.0
  0
LINE
  5
2E6E
330
2E4B
100
AcDbEntity
  8
V3 Burner Box
100
AcDbLine
 10
15.33491709886533
 20
42.52190136760821
 30
0.0
 11
15.83295656418988
 21
42.52190136760821
 31
0.0
  0
LINE
  5
2E6F
330
2E4B
100
AcDbEntity
  8
V3 Burner Box
100
AcDbLine
 10
14.55673112822235
 20
43.36545533582042
 30
0.0
 11
13.80967222241516
 21
43.36545533582042
 31
0.0
  0
LINE
  5
2E70
330
2E4B
100
AcDbEntity
  8
V3 Burner Box
100
AcDbLine
 10
13.80967222241516
 20
42.5250141033098
 30
0.0
 11
14.55673112822235
 21
42.5250141033098
 31
0.0
  0
LINE
  5
2E71
330
2E4B
100
AcDbEntity
  8
V3 Burner Box
100
AcDbLine
 10
13.80967222241516
 20
43.36545533582042
 30
0.0
 11
13.6851622099942
 21
43.24094550601175
 31
0.0
  0
LINE
  5
2E72
330
2E4B
100
AcDbEntity
  8
V3 Burner Box
100
AcDbLine
 10
13.6851622099942
 20
42.64952396964095
 30
0.0
 11
13.80967222241516
 21
42.5250141033098
 31
0.0
  0
LINE
  5
2E73
330
2E4B
100
AcDbEntity
  8
V3 Burner Box
100
AcDbLine
 10
15.95746599225158
 20
49.26405431911992
 30
0.0
 11
16.08197600467252
 21
49.26405431911992
 31
0.0
  0
LINE
  5
2E74
330
2E4B
100
AcDbEntity
  8
V3 Burner Box
100
AcDbLine
 10
16.08197600467252
 20
50.07336793895799
 30
0.0
 11
15.95746599225158
 21
50.07336793895799
 31
0.0
  0
ARC
  5
2E75
330
2E4B
100
AcDbEntity
  8
V3 Burner Box
100
AcDbCircle
 10
15.95746620233669
 20
49.3885639243173
 30
0.0
 40
0.1245098039215713
100
AcDbArc
 50
180.0
 51
270.0
  0
ARC
  5
2E76
330
2E4B
100
AcDbEntity
  8
V3 Burner Box
100
AcDbCircle
 10
15.95746620233669
 20
49.94885804196435
 30
0.0
 40
0.1245098039215713
100
AcDbArc
 50
90.0
 51
180.0
  0
LINE
  5
2E77
330
2E4B
100
AcDbEntity
  8
V3 Burner Box
100
AcDbLine
 10
16.51776017160698
 20
49.32630903315075
 30
0.0
 11
16.70452489805878
 21
49.32630903315075
 31
0.0
  0
LINE
  5
2E78
330
2E4B
100
AcDbEntity
  8
V3 Burner Box
100
AcDbLine
 10
16.70452489805878
 20
50.01111322492711
 30
0.0
 11
16.51776017160698
 21
50.01111322492711
 31
0.0
  0
LINE
  5
2E79
330
2E4B
100
AcDbEntity
  8
V3 Burner Box
100
AcDbLine
 10
16.77176010608394
 20
50.13562440606661
 30
0.0
 11
16.76678019644888
 21
50.13562440606661
 31
0.0
  0
LINE
  5
2E7A
330
2E4B
100
AcDbEntity
  8
V3 Burner Box
100
AcDbLine
 10
16.76678019644888
 20
49.20180077380762
 30
0.0
 11
16.77176010608394
 21
49.20180077380762
 31
0.0
  0
ARC
  5
2E7B
330
2E4B
100
AcDbEntity
  8
V3 Burner Box
100
AcDbCircle
 10
14.94893679057198
 20
39.83373475216886
 30
0.0
 40
0.0498039215686267
100
AcDbArc
 50
90.0
 51
180.0
  0
ARC
  5
2E7C
330
2E4B
100
AcDbEntity
  8
V3 Burner Box
100
AcDbCircle
 10
14.94893679057198
 20
36.0112837717767
 30
0.0
 40
0.0498039215686267
100
AcDbArc
 50
180.0
 51
270.0
  0
LINE
  5
2E7D
330
2E4B
100
AcDbEntity
  8
V3 Burner Box
100
AcDbLine
 10
14.94893670315557
 20
35.96147976404079
 30
0.0
 11
16.39325074354528
 21
35.96147976404079
 31
0.0
  0
LINE
  5
2E7E
330
2E4B
100
AcDbEntity
  8
V3 Burner Box
100
AcDbLine
 10
16.39325074354528
 20
39.88353872734895
 30
0.0
 11
14.94893670315557
 21
39.88353872734895
 31
0.0
  0
LINE
  5
2E7F
330
2E4B
100
AcDbEntity
  8
V3 Burner Box
100
AcDbLine
 10
16.50289933120224
 20
40.00929371717865
 30
0.0
 11
16.39325074354528
 21
40.00929371717865
 31
0.0
  0
LINE
  5
2E80
330
2E4B
100
AcDbEntity
  8
V3 Burner Box
100
AcDbLine
 10
16.39325074354528
 20
35.83572506639071
 30
0.0
 11
16.50133207966019
 21
35.83572506639071
 31
0.0
  0
ARC
  5
2E81
330
2E4B
100
AcDbEntity
  8
V3 Burner Box
100
AcDbCircle
 10
27.72663090821899
 20
45.17671019913104
 30
0.0
 40
0.2490196078431248
100
AcDbArc
 50
218.7394245978638
 51
270.0
  0
ARC
  5
2E82
330
2E4B
100
AcDbEntity
  8
V3 Burner Box
100
AcDbCircle
 10
27.72663090821899
 20
40.7142788126494
 30
0.0
 40
0.2490196078431257
100
AcDbArc
 50
90.0
 51
136.0751947761094
  0
LINE
  5
2E83
330
2E4B
100
AcDbEntity
  8
BURNER Radiant Tubes
  6
Continuous
100
AcDbLine
 10
32.03218011528559
 20
44.9276905553341
 30
0.0
 11
27.72663100326483
 21
44.9276905553341
 31
0.0
  0
LINE
  5
2E84
330
2E4B
100
AcDbEntity
  8
BURNER Radiant Tubes
  6
Continuous
100
AcDbLine
 10
39.55506231504049
 20
44.9276905553341
 30
0.0
 11
36.51453238141023
 21
44.9276905553341
 31
0.0
  0
LINE
  5
2E85
330
2E4B
100
AcDbEntity
  8
BURNER Radiant Tubes
  6
Continuous
100
AcDbLine
 10
27.72663100326483
 20
40.96329848874783
 30
0.0
 11
39.55506231504049
 21
40.96329848874783
 31
0.0
  0
LINE
  5
2E86
330
2E4B
100
AcDbEntity
  8
BURNER Radiant Tubes
  6
Continuous
100
AcDbLine
 10
39.55506231504049
 20
40.96329848874783
 30
0.0
 11
39.63972895986615
 21
41.04796513357348
 31
0.0
  0
LINE
  5
2E87
330
2E4B
100
AcDbEntity
  8
BURNER Radiant Tubes
  6
Continuous
100
AcDbLine
 10
39.63972895986615
 20
44.84302391050845
 30
0.0
 11
39.55506231504049
 21
44.9276905553341
 31
0.0
  0
LINE
  5
2E88
330
2E4B
100
AcDbEntity
  8
BURNER Radiant Tubes
  6
Continuous
100
AcDbLine
 10
43.53937686891838
 20
44.84302391050845
 30
0.0
 11
39.63972895986615
 21
44.84302391050845
 31
0.0
  0
LINE
  5
2E89
330
2E4B
100
AcDbEntity
  8
BURNER Radiant Tubes
  6
Continuous
100
AcDbLine
 10
39.63972895986615
 20
41.04796513357348
 30
0.0
 11
43.53937686891838
 21
41.04796513357348
 31
0.0
  0
LINE
  5
2E8A
330
2E4B
100
AcDbEntity
  8
V3 Burner Box
100
AcDbLine
 10
27.53239582800119
 20
34.82537958870685
 30
0.0
 11
27.53239582800119
 21
37.21054710328348
 31
0.0
  0
LINE
  5
2E8B
330
2E4B
100
AcDbEntity
  8
V3 Burner Box
100
AcDbLine
 10
16.77176010608394
 20
37.21054710328348
 30
0.0
 11
16.77176010608394
 21
34.82537958870685
 31
0.0
  0
LINE
  5
2E8C
330
2E4B
100
AcDbEntity
  8
V3 Burner Box
100
AcDbLine
 10
16.77176010608394
 20
52.95265854308185
 30
0.0
 11
16.77176010608394
 21
50.5674910285052
 31
0.0
  0
LINE
  5
2E8D
330
2E4B
100
AcDbEntity
  8
V3 Burner Box
100
AcDbLine
 10
27.53239582800119
 20
50.5674910285052
 30
0.0
 11
27.53239582800119
 21
52.95265854308185
 31
0.0
  0
LINE
  5
2E8E
330
2E4B
100
AcDbEntity
  8
V3 Burner Box
100
AcDbLine
 10
16.77176010608394
 20
40.08291743284114
 30
0.0
 11
16.76802488167801
 21
40.08291743284114
 31
0.0
  0
LINE
  5
2E8F
330
2E4B
100
AcDbEntity
  8
V3 Burner Box
100
AcDbLine
 10
27.66437628923398
 20
45.17570117259494
 30
0.0
 11
27.59963103602635
 21
45.17570117259494
 31
0.0
  0
LINE
  5
2E90
330
2E4B
100
AcDbEntity
  8
V3 Burner Box
100
AcDbLine
 10
27.66437628923398
 20
45.17570117259494
 30
0.0
 11
27.66437628923398
 21
45.01750270260082
 31
0.0
  0
LINE
  5
2E91
330
2E4B
100
AcDbEntity
  8
V3 Burner Box
100
AcDbLine
 10
27.66437628923398
 20
45.01750270260082
 30
0.0
 11
27.53515283500168
 21
45.01750270260082
 31
0.0
  0
LINE
  5
2E92
330
2E4B
100
AcDbEntity
  8
V3 Burner Box
100
AcDbLine
 10
27.66437628923398
 20
45.36403651065453
 30
0.0
 11
27.59963103602635
 21
45.36403651065453
 31
0.0
  0
LINE
  5
2E93
330
2E4B
100
AcDbEntity
  8
V3 Burner Box
100
AcDbLine
 10
27.66437628923398
 20
45.36403651065453
 30
0.0
 11
27.66437628923398
 21
45.17570117259494
 31
0.0
  0
LINE
  5
2E94
330
2E4B
100
AcDbEntity
  8
V3 Burner Box
100
AcDbLine
 10
27.66437628923398
 20
45.39417337872002
 30
0.0
 11
27.59963103602635
 21
45.39417337872002
 31
0.0
  0
LINE
  5
2E95
330
2E4B
100
AcDbEntity
  8
V3 Burner Box
100
AcDbLine
 10
27.66437628923398
 20
45.39417337872002
 30
0.0
 11
27.66437628923398
 21
45.36403651065453
 31
0.0
  0
LINE
  5
2E96
330
2E4B
100
AcDbEntity
  8
V3 Burner Box
100
AcDbLine
 10
27.66437628923398
 20
40.47909577422046
 30
0.0
 11
27.53239582800119
 21
40.47909577422046
 31
0.0
  0
LINE
  5
2E97
330
2E4B
100
AcDbEntity
  8
V3 Burner Box
100
AcDbLine
 10
27.66437628923398
 20
40.48327481948628
 30
0.0
 11
27.66437628923398
 21
40.47909577422046
 31
0.0
  0
LINE
  5
2E98
330
2E4B
100
AcDbEntity
  8
V3 Burner Box
100
AcDbLine
 10
27.59963103602635
 20
45.36601383630902
 30
0.0
 11
27.53239582800119
 21
45.36601383630902
 31
0.0
  0
LINE
  5
2E99
330
2E4B
100
AcDbEntity
  8
V3 Burner Box
100
AcDbLine
 10
27.59963103602635
 20
45.36601383630902
 30
0.0
 11
27.59963103602635
 21
45.1766396535705
 31
0.0
  0
LINE
  5
2E9A
330
2E4B
100
AcDbEntity
  8
V3 Burner Box
100
AcDbLine
 10
27.59963103602635
 20
45.1766396535705
 30
0.0
 11
27.53239582800119
 21
45.1766396535705
 31
0.0
  0
LINE
  5
2E9B
330
2E4B
100
AcDbEntity
  8
V3 Burner Box
100
AcDbLine
 10
27.59963103602635
 20
45.02026241226291
 30
0.0
 11
27.53239582800119
 21
45.02026241226291
 31
0.0
  0
LINE
  5
2E9C
330
2E4B
100
AcDbEntity
  8
V3 Burner Box
100
AcDbLine
 10
27.59963103602635
 20
45.1766396535705
 30
0.0
 11
27.59963103602635
 21
45.02026241226291
 31
0.0
  0
LINE
  5
2E9D
330
2E4B
100
AcDbEntity
  8
V3 Burner Box
100
AcDbLine
 10
27.59963103602635
 20
45.39901055860521
 30
0.0
 11
27.53239582800119
 21
45.39901055860521
 31
0.0
  0
LINE
  5
2E9E
330
2E4B
100
AcDbEntity
  8
V3 Burner Box
100
AcDbLine
 10
27.59963103602635
 20
45.39901055860521
 30
0.0
 11
27.59963103602635
 21
45.36601383630902
 31
0.0
  0
LINE
  5
2E9F
330
2E4B
100
AcDbEntity
  8
V3 Burner Box
100
AcDbLine
 10
27.66437628923398
 20
40.77437981405443
 30
0.0
 11
27.53239582800119
 21
40.77437981405443
 31
0.0
  0
LINE
  5
2EA0
330
2E4B
100
AcDbEntity
  8
V3 Burner Box
100
AcDbLine
 10
27.66437628923398
 20
40.77437981405443
 30
0.0
 11
27.66437628923398
 21
40.57250355707431
 31
0.0
  0
LINE
  5
2EA1
330
2E4B
100
AcDbEntity
  8
V3 Burner Box
100
AcDbLine
 10
27.66437628923398
 20
40.57250355707431
 30
0.0
 11
27.53239582800119
 21
40.57250355707431
 31
0.0
  0
LINE
  5
2EA2
330
2E4B
100
AcDbEntity
  8
V3 Burner Box
100
AcDbLine
 10
27.66437628923398
 20
40.88702704126696
 30
0.0
 11
27.53239582800119
 21
40.88702704126696
 31
0.0
  0
LINE
  5
2EA3
330
2E4B
100
AcDbEntity
  8
V3 Burner Box
100
AcDbLine
 10
27.66437628923398
 20
40.88702704126696
 30
0.0
 11
27.66437628923398
 21
40.77437981405443
 31
0.0
  0
LINE
  5
2EA4
330
2E4B
100
AcDbEntity
  8
V3 Burner Box
100
AcDbLine
 10
27.66437628923398
 20
40.48327481948628
 30
0.0
 11
27.53239582800119
 21
40.48327481948628
 31
0.0
  0
LINE
  5
2EA5
330
2E4B
100
AcDbEntity
  8
V3 Burner Box
100
AcDbLine
 10
27.66437628923398
 20
40.57250355707431
 30
0.0
 11
27.66437628923398
 21
40.48327481948628
 31
0.0
  0
LINE
  5
2EA6
330
2E4B
100
AcDbEntity
  8
V3 Burner Box
100
AcDbLine
 10
27.66437628923398
 20
43.03852177744754
 30
0.0
 11
27.53239582800119
 21
43.03852177744754
 31
0.0
  0
LINE
  5
2EA7
330
2E4B
100
AcDbEntity
  8
V3 Burner Box
100
AcDbLine
 10
27.66437628923398
 20
43.03852177744754
 30
0.0
 11
27.66437628923398
 21
42.83664559351229
 31
0.0
  0
LINE
  5
2EA8
330
2E4B
100
AcDbEntity
  8
V3 Burner Box
100
AcDbLine
 10
27.66437628923398
 20
42.83664559351229
 30
0.0
 11
27.53239582800119
 21
42.83664559351229
 31
0.0
  0
LINE
  5
2EA9
330
2E4B
100
AcDbEntity
  8
V3 Burner Box
100
AcDbLine
 10
27.66437628923398
 20
43.15116907770494
 30
0.0
 11
27.53239582800119
 21
43.15116907770494
 31
0.0
  0
LINE
  5
2EAA
330
2E4B
100
AcDbEntity
  8
V3 Burner Box
100
AcDbLine
 10
27.66437628923398
 20
43.15116907770494
 30
0.0
 11
27.66437628923398
 21
43.03852177744754
 31
0.0
  0
LINE
  5
2EAB
330
2E4B
100
AcDbEntity
  8
V3 Burner Box
100
AcDbLine
 10
27.66437628923398
 20
42.74741678287937
 30
0.0
 11
27.53239582800119
 21
42.74741678287937
 31
0.0
  0
LINE
  5
2EAC
330
2E4B
100
AcDbEntity
  8
V3 Burner Box
100
AcDbLine
 10
27.66437628923398
 20
42.83664559351229
 30
0.0
 11
27.66437628923398
 21
42.74741678287937
 31
0.0
  0
LINE
  5
2EAD
330
2E4B
100
AcDbEntity
  8
V3 Burner Box
100
AcDbLine
 10
31.99458127161757
 20
46.72237844762615
 30
0.0
 11
36.57031648532738
 21
46.72237844762615
 31
0.0
  0
LINE
  5
2EAE
330
2E4B
100
AcDbEntity
  8
V3 Burner Box
100
AcDbLine
 10
31.99458127161757
 20
46.72237844762615
 30
0.0
 11
31.99458127161757
 21
48.21648194243862
 31
0.0
  0
LINE
  5
2EAF
330
2E4B
100
AcDbEntity
  8
V3 Burner Box
100
AcDbLine
 10
31.99458127161757
 20
48.21648194243862
 30
0.0
 11
36.57031648532738
 21
48.21648194243862
 31
0.0
  0
LINE
  5
2EB0
330
2E4B
100
AcDbEntity
  8
V3 Burner Box
100
AcDbLine
 10
36.57031648532738
 20
46.72237844762615
 30
0.0
 11
36.57031648532738
 21
48.21648194243862
 31
0.0
  0
LINE
  5
2EB1
330
2E4B
100
AcDbEntity
  8
V3 Burner Box
100
AcDbLine
 10
31.99458127161757
 20
46.22433927448123
 30
0.0
 11
31.99458127161757
 21
46.72237844762615
 31
0.0
  0
LINE
  5
2EB2
330
2E4B
100
AcDbEntity
  8
V3 Burner Box
100
AcDbLine
 10
36.57031648532738
 20
46.22433927448123
 30
0.0
 11
36.57031648532738
 21
46.72237844762615
 31
0.0
  0
LINE
  5
2EB3
330
2E4B
100
AcDbEntity
  8
V3 Burner Box
100
AcDbLine
 10
31.99458127161757
 20
46.22433927448123
 30
0.0
 11
36.57031648532738
 21
46.22433927448123
 31
0.0
  0
LINE
  5
2EB4
330
2E4B
100
AcDbEntity
  8
V3 Burner Box
100
AcDbLine
 10
36.5284810370062
 20
44.9276905553341
 30
0.0
 11
36.5284810370062
 21
46.22433927448123
 31
0.0
  0
LINE
  5
2EB5
330
2E4B
100
AcDbEntity
  8
V3 Burner Box
100
AcDbLine
 10
36.57031648532738
 20
44.9276905553341
 30
0.0
 11
36.57031648532738
 21
46.22433927448123
 31
0.0
  0
LINE
  5
2EB6
330
2E4B
100
AcDbEntity
  8
V3 Burner Box
100
AcDbLine
 10
31.99458127161757
 20
44.9276905553341
 30
0.0
 11
31.99458127161757
 21
46.22433927448123
 31
0.0
  0
LINE
  5
2EB7
330
2E4B
100
AcDbEntity
  8
V3 Burner Box
100
AcDbLine
 10
32.03218011528559
 20
42.94523473782634
 30
0.0
 11
36.51453238141023
 21
42.94523473782634
 31
0.0
  0
LINE
  5
2EB8
330
2E4B
100
AcDbEntity
  8
V3 Burner Box
100
AcDbLine
 10
32.03218011528559
 20
42.94523473782634
 30
0.0
 11
32.03218011528559
 21
46.18248965544795
 31
0.0
  0
LINE
  5
2EB9
330
2E4B
100
AcDbEntity
  8
V3 Burner Box
100
AcDbLine
 10
32.03218011528559
 20
46.18248965544795
 30
0.0
 11
36.51453238141023
 21
46.18248965544795
 31
0.0
  0
LINE
  5
2EBA
330
2E4B
100
AcDbEntity
  8
V3 Burner Box
100
AcDbLine
 10
36.51453238141023
 20
42.94523473782634
 30
0.0
 11
36.51453238141023
 21
46.18248965544795
 31
0.0
  0
LINE
  5
2EBB
330
2E4B
100
AcDbEntity
  8
V3 Burner Box
100
AcDbLine
 10
36.47269810180759
 20
46.18248965544795
 30
0.0
 11
36.47269810180759
 21
46.22433927448123
 31
0.0
  0
LINE
  5
2EBC
330
2E4B
100
AcDbEntity
  8
V3 Burner Box
100
AcDbLine
 10
32.07401556360677
 20
46.22433927448123
 30
0.0
 11
32.07401556360677
 21
46.18248965544795
 31
0.0
  0
LINE
  5
2EBD
330
2E4B
100
AcDbEntity
  8
V3 Burner Box
100
AcDbLine
 10
36.51453238141023
 20
46.18248965544795
 30
0.0
 11
36.51453238141023
 21
46.22433927448123
 31
0.0
  0
LINE
  5
2EBE
330
2E4B
100
AcDbEntity
  8
V3 Burner Box
100
AcDbLine
 10
32.03218011528559
 20
46.18248965544795
 30
0.0
 11
32.03218011528559
 21
46.22433927448123
 31
0.0
  0
LINE
  5
2EBF
330
2E4B
100
AcDbEntity
  8
V3 Burner Box
100
AcDbLine
 10
27.59963103602635
 20
46.99180342137582
 30
0.0
 11
27.59963103602635
 21
47.56766113314909
 31
0.0
  0
LINE
  5
2EC0
330
2E4B
100
AcDbEntity
  8
V3 Burner Box
100
AcDbLine
 10
27.59963103602635
 20
46.41594541742288
 30
0.0
 11
27.59963103602635
 21
46.99180342137582
 31
0.0
  0
LINE
  5
2EC1
330
2E4B
100
AcDbEntity
  8
V3 Burner Box
100
AcDbLine
 10
31.84541538883379
 20
46.99180342137582
 30
0.0
 11
31.84541538883379
 21
47.56766113314909
 31
0.0
  0
LINE
  5
2EC2
330
2E4B
100
AcDbEntity
  8
V3 Burner Box
100
AcDbLine
 10
31.84541538883379
 20
46.41594541742288
 30
0.0
 11
31.84541538883379
 21
46.99180342137582
 31
0.0
  0
LINE
  5
2EC3
330
2E4B
100
AcDbEntity
  8
V3 Burner Box
100
AcDbLine
 10
30.97384647060564
 20
46.99180342137582
 30
0.0
 11
30.97384647060564
 21
47.52096995153613
 31
0.0
  0
LINE
  5
2EC4
330
2E4B
100
AcDbEntity
  8
V3 Burner Box
100
AcDbLine
 10
30.97384647060564
 20
46.46263659903581
 30
0.0
 11
30.97384647060564
 21
46.99180342137582
 31
0.0
  0
LINE
  5
2EC5
330
2E4B
100
AcDbEntity
  8
V3 Burner Box
100
AcDbLine
 10
28.47119936989523
 20
46.99180342137582
 30
0.0
 11
28.47119936989523
 21
47.52096995153613
 31
0.0
  0
LINE
  5
2EC6
330
2E4B
100
AcDbEntity
  8
V3 Burner Box
100
AcDbLine
 10
28.47119936989523
 20
46.46263659903581
 30
0.0
 11
28.47119936989523
 21
46.99180342137582
 31
0.0
  0
LINE
  5
2EC7
330
2E4B
100
AcDbEntity
  8
V3 Burner Box
100
AcDbLine
 10
16.73565254725383
 20
42.10479361488306
 30
0.0
 11
16.73565254725383
 21
43.78567592468389
 31
0.0
  0
LINE
  5
2EC8
330
2E4B
100
AcDbEntity
  8
V3 Burner Box
100
AcDbLine
 10
16.58001546999708
 20
42.16829359850229
 30
0.0
 11
16.58001546999708
 21
43.72217593193403
 31
0.0
  0
LINE
  5
2EC9
330
2E4B
100
AcDbEntity
  8
V3 Burner Box
100
AcDbLine
 10
16.67339783322299
 20
42.16829359850229
 30
0.0
 11
16.67339783322299
 21
43.72217593193403
 31
0.0
  0
LINE
  5
2ECA
330
2E4B
100
AcDbEntity
  8
V3 Burner Box
100
AcDbLine
 10
14.55673112822235
 20
42.92967105931864
 30
0.0
 11
15.33491709886533
 21
42.92967105931864
 31
0.0
  0
LINE
  5
2ECB
330
2E4B
100
AcDbEntity
  8
V3 Burner Box
100
AcDbLine
 10
14.55673112822235
 20
42.92967105931864
 30
0.0
 11
14.55673112822235
 21
42.96079848937893
 31
0.0
  0
LINE
  5
2ECC
330
2E4B
100
AcDbEntity
  8
V3 Burner Box
100
AcDbLine
 10
14.55673112822235
 20
42.96079848937893
 30
0.0
 11
15.33491709886533
 21
42.96079848937893
 31
0.0
  0
LINE
  5
2ECD
330
2E4B
100
AcDbEntity
  8
V3 Burner Box
100
AcDbLine
 10
15.33491709886533
 20
42.92967105931864
 30
0.0
 11
15.33491709886533
 21
42.96079848937893
 31
0.0
  0
LINE
  5
2ECE
330
2E4B
100
AcDbEntity
  8
V3 Burner Box
100
AcDbLine
 10
14.55673112822235
 20
43.38794279504988
 30
0.0
 11
15.33491709886533
 21
43.38794279504988
 31
0.0
  0
LINE
  5
2ECF
330
2E4B
100
AcDbEntity
  8
V3 Burner Box
100
AcDbLine
 10
14.55673112822235
 20
42.96079848937893
 30
0.0
 11
14.55673112822235
 21
43.38794279504988
 31
0.0
  0
LINE
  5
2ED0
330
2E4B
100
AcDbEntity
  8
V3 Burner Box
100
AcDbLine
 10
15.33491709886533
 20
42.96079848937893
 30
0.0
 11
15.33491709886533
 21
43.38794279504988
 31
0.0
  0
LINE
  5
2ED1
330
2E4B
100
AcDbEntity
  8
V3 Burner Box
100
AcDbLine
 10
14.55673112822235
 20
42.50252664408029
 30
0.0
 11
15.33491709886533
 21
42.50252664408029
 31
0.0
  0
LINE
  5
2ED2
330
2E4B
100
AcDbEntity
  8
V3 Burner Box
100
AcDbLine
 10
14.55673112822235
 20
42.50252664408029
 30
0.0
 11
14.55673112822235
 21
42.92967105931864
 31
0.0
  0
LINE
  5
2ED3
330
2E4B
100
AcDbEntity
  8
V3 Burner Box
100
AcDbLine
 10
15.33491709886533
 20
42.50252664408029
 30
0.0
 11
15.33491709886533
 21
42.92967105931864
 31
0.0
  0
LINE
  5
2ED4
330
2E4B
100
AcDbEntity
  8
V3 Burner Box
100
AcDbLine
 10
15.83295656418988
 20
42.49201913409139
 30
0.0
 11
15.83295656418988
 21
43.39845045112862
 31
0.0
  0
LINE
  5
2ED5
330
2E4B
100
AcDbEntity
  8
V3 Burner Box
100
AcDbLine
 10
13.80967222241516
 20
43.36545533582042
 30
0.0
 11
13.80967222241516
 21
42.5250141033098
 31
0.0
  0
LINE
  5
2ED6
330
2E4B
100
AcDbEntity
  8
V3 Burner Box
100
AcDbLine
 10
13.6851622099942
 20
42.64952396964095
 30
0.0
 11
13.6851622099942
 21
43.24094550601175
 31
0.0
  0
LINE
  5
2ED7
330
2E4B
100
AcDbEntity
  8
V3 Burner Box
100
AcDbLine
 10
14.55673112822235
 20
42.4869629655726
 30
0.0
 11
15.33491709886533
 21
42.4869629655726
 31
0.0
  0
LINE
  5
2ED8
330
2E4B
100
AcDbEntity
  8
V3 Burner Box
100
AcDbLine
 10
14.55673112822235
 20
42.4869629655726
 30
0.0
 11
14.55673112822235
 21
42.50252664408029
 31
0.0
  0
LINE
  5
2ED9
330
2E4B
100
AcDbEntity
  8
V3 Burner Box
100
AcDbLine
 10
15.33491709886533
 20
42.4869629655726
 30
0.0
 11
15.33491709886533
 21
42.50252664408029
 31
0.0
  0
LINE
  5
2EDA
330
2E4B
100
AcDbEntity
  8
V3 Burner Box
100
AcDbLine
 10
14.55673112822235
 20
43.40350651008008
 30
0.0
 11
15.33491709886533
 21
43.40350651008008
 31
0.0
  0
LINE
  5
2EDB
330
2E4B
100
AcDbEntity
  8
V3 Burner Box
100
AcDbLine
 10
14.55673112822235
 20
43.38794279504988
 30
0.0
 11
14.55673112822235
 21
43.40350651008008
 31
0.0
  0
LINE
  5
2EDC
330
2E4B
100
AcDbEntity
  8
V3 Burner Box
100
AcDbLine
 10
15.33491709886533
 20
43.38794279504988
 30
0.0
 11
15.33491709886533
 21
43.40350651008008
 31
0.0
  0
LINE
  5
2EDD
330
2E4B
100
AcDbEntity
  8
V3 Burner Box
100
AcDbLine
 10
16.76179970245456
 20
49.64175375972074
 30
0.0
 11
16.70452489805878
 21
49.64175375972074
 31
0.0
  0
LINE
  5
2EDE
330
2E4B
100
AcDbEntity
  8
V3 Burner Box
100
AcDbLine
 10
16.77176010608394
 20
49.28457117282643
 30
0.0
 11
16.70452489805878
 21
49.28457117282643
 31
0.0
  0
LINE
  5
2EDF
330
2E4B
100
AcDbEntity
  8
V3 Burner Box
100
AcDbLine
 10
16.70452489805878
 20
49.64175375972074
 30
0.0
 11
16.70452489805878
 21
49.28457117282643
 31
0.0
  0
LINE
  5
2EE0
330
2E4B
100
AcDbEntity
  8
V3 Burner Box
100
AcDbLine
 10
16.51776017160698
 20
49.64175375972074
 30
0.0
 11
16.08197600467252
 21
49.64175375972074
 31
0.0
  0
LINE
  5
2EE1
330
2E4B
100
AcDbEntity
  8
V3 Burner Box
100
AcDbLine
 10
16.51776017160698
 20
49.64175375972074
 30
0.0
 11
16.51776017160698
 21
49.28457117282643
 31
0.0
  0
LINE
  5
2EE2
330
2E4B
100
AcDbEntity
  8
V3 Burner Box
100
AcDbLine
 10
16.51776017160698
 20
49.28457117282643
 30
0.0
 11
16.08197600467252
 21
49.28457117282643
 31
0.0
  0
LINE
  5
2EE3
330
2E4B
100
AcDbEntity
  8
V3 Burner Box
100
AcDbLine
 10
16.08197600467252
 20
49.64175375972074
 30
0.0
 11
16.08197600467252
 21
49.28457117282643
 31
0.0
  0
LINE
  5
2EE4
330
2E4B
100
AcDbEntity
  8
V3 Burner Box
100
AcDbLine
 10
16.51776017160698
 20
49.69566791399788
 30
0.0
 11
16.08197600467252
 21
49.69566791399788
 31
0.0
  0
LINE
  5
2EE5
330
2E4B
100
AcDbEntity
  8
V3 Burner Box
100
AcDbLine
 10
16.08197600467252
 20
49.69566791399788
 30
0.0
 11
16.08197600467252
 21
49.64175375972074
 31
0.0
  0
LINE
  5
2EE6
330
2E4B
100
AcDbEntity
  8
V3 Burner Box
100
AcDbLine
 10
16.51776017160698
 20
49.69566791399788
 30
0.0
 11
16.51776017160698
 21
49.64175375972074
 31
0.0
  0
LINE
  5
2EE7
330
2E4B
100
AcDbEntity
  8
V3 Burner Box
100
AcDbLine
 10
16.76179970245456
 20
49.69566791399788
 30
0.0
 11
16.70452489805878
 21
49.69566791399788
 31
0.0
  0
LINE
  5
2EE8
330
2E4B
100
AcDbEntity
  8
V3 Burner Box
100
AcDbLine
 10
16.70452489805878
 20
49.69566791399788
 30
0.0
 11
16.70452489805878
 21
49.64175375972074
 31
0.0
  0
LINE
  5
2EE9
330
2E4B
100
AcDbEntity
  8
V3 Burner Box
100
AcDbLine
 10
16.51776017160698
 20
50.0528505008922
 30
0.0
 11
16.08197600467252
 21
50.0528505008922
 31
0.0
  0
LINE
  5
2EEA
330
2E4B
100
AcDbEntity
  8
V3 Burner Box
100
AcDbLine
 10
16.08197600467252
 20
50.0528505008922
 30
0.0
 11
16.08197600467252
 21
49.69566791399788
 31
0.0
  0
LINE
  5
2EEB
330
2E4B
100
AcDbEntity
  8
V3 Burner Box
100
AcDbLine
 10
16.51776017160698
 20
50.0528505008922
 30
0.0
 11
16.51776017160698
 21
49.69566791399788
 31
0.0
  0
LINE
  5
2EEC
330
2E4B
100
AcDbEntity
  8
V3 Burner Box
100
AcDbLine
 10
16.77176010608394
 20
50.0528505008922
 30
0.0
 11
16.70452489805878
 21
50.0528505008922
 31
0.0
  0
LINE
  5
2EED
330
2E4B
100
AcDbEntity
  8
V3 Burner Box
100
AcDbLine
 10
16.70452489805878
 20
50.0528505008922
 30
0.0
 11
16.70452489805878
 21
49.69566791399788
 31
0.0
  0
LINE
  5
2EEE
330
2E4B
100
AcDbEntity
  8
V3 Burner Box
100
AcDbLine
 10
15.83295656418988
 20
49.66871083685932
 30
0.0
 11
15.83295656418988
 21
49.94885792653703
 31
0.0
  0
LINE
  5
2EEF
330
2E4B
100
AcDbEntity
  8
V3 Burner Box
100
AcDbLine
 10
15.83295656418988
 20
49.38856374718163
 30
0.0
 11
15.83295656418988
 21
49.66871083685932
 31
0.0
  0
LINE
  5
2EF0
330
2E4B
100
AcDbEntity
  8
V3 Burner Box
100
AcDbLine
 10
16.77176010608394
 20
49.25761409568789
 30
0.0
 11
16.70452489805878
 21
49.25761409568789
 31
0.0
  0
LINE
  5
2EF1
330
2E4B
100
AcDbEntity
  8
V3 Burner Box
100
AcDbLine
 10
16.70452489805878
 20
49.28457117282643
 30
0.0
 11
16.70452489805878
 21
49.25761409568789
 31
0.0
  0
LINE
  5
2EF2
330
2E4B
100
AcDbEntity
  8
V3 Burner Box
100
AcDbLine
 10
16.51776017160698
 20
49.25761409568789
 30
0.0
 11
16.08197600467252
 21
49.25761409568789
 31
0.0
  0
LINE
  5
2EF3
330
2E4B
100
AcDbEntity
  8
V3 Burner Box
100
AcDbLine
 10
16.08197600467252
 20
49.28457117282643
 30
0.0
 11
16.08197600467252
 21
49.25761409568789
 31
0.0
  0
LINE
  5
2EF4
330
2E4B
100
AcDbEntity
  8
V3 Burner Box
100
AcDbLine
 10
16.51776017160698
 20
49.28457117282643
 30
0.0
 11
16.51776017160698
 21
49.25761409568789
 31
0.0
  0
LINE
  5
2EF5
330
2E4B
100
AcDbEntity
  8
V3 Burner Box
100
AcDbLine
 10
16.77176010608394
 20
50.07980757803075
 30
0.0
 11
16.70452489805878
 21
50.07980757803075
 31
0.0
  0
LINE
  5
2EF6
330
2E4B
100
AcDbEntity
  8
V3 Burner Box
100
AcDbLine
 10
16.70452489805878
 20
50.07980757803075
 30
0.0
 11
16.70452489805878
 21
50.0528505008922
 31
0.0
  0
LINE
  5
2EF7
330
2E4B
100
AcDbEntity
  8
V3 Burner Box
100
AcDbLine
 10
16.51776017160698
 20
50.07980757803075
 30
0.0
 11
16.08197600467252
 21
50.07980757803075
 31
0.0
  0
LINE
  5
2EF8
330
2E4B
100
AcDbEntity
  8
V3 Burner Box
100
AcDbLine
 10
16.08197600467252
 20
50.07980757803075
 30
0.0
 11
16.08197600467252
 21
50.0528505008922
 31
0.0
  0
LINE
  5
2EF9
330
2E4B
100
AcDbEntity
  8
V3 Burner Box
100
AcDbLine
 10
16.51776017160698
 20
50.07980757803075
 30
0.0
 11
16.51776017160698
 21
50.0528505008922
 31
0.0
  0
LINE
  5
2EFA
330
2E4B
100
AcDbEntity
  8
V3 Burner Box
100
AcDbLine
 10
16.77176010608394
 20
39.53241185549197
 30
0.0
 11
16.39325074354528
 21
39.53241185549197
 31
0.0
  0
LINE
  5
2EFB
330
2E4B
100
AcDbEntity
  8
V3 Burner Box
100
AcDbLine
 10
16.77176010608394
 20
36.3093868163614
 30
0.0
 11
16.39325074354528
 21
36.3093868163614
 31
0.0
  0
LINE
  5
2EFC
330
2E4B
100
AcDbEntity
  8
V3 Burner Box
100
AcDbLine
 10
16.39325074354528
 20
36.3093868163614
 30
0.0
 11
16.39325074354528
 21
39.53241185549197
 31
0.0
  0
LINE
  5
2EFD
330
2E4B
100
AcDbEntity
  8
V3 Burner Box
100
AcDbLine
 10
14.89913293193089
 20
36.01128353526546
 30
0.0
 11
14.89913293193089
 21
39.83373466394464
 31
0.0
  0
LINE
  5
2EFE
330
2E4B
100
AcDbEntity
  8
V3 Burner Box
100
AcDbLine
 10
16.39325074354528
 20
39.53241185549197
 30
0.0
 11
16.76678019644888
 21
39.98783224672429
 31
0.0
  0
LINE
  5
2EFF
330
2E4B
100
AcDbEntity
  8
V3 Burner Box
100
AcDbLine
 10
16.77176010608394
 20
39.98783224672429
 30
0.0
 11
16.76678019644888
 21
39.98783224672429
 31
0.0
  0
LINE
  5
2F00
330
2E4B
100
AcDbEntity
  8
V3 Burner Box
100
AcDbLine
 10
16.39325074354528
 20
39.87560546600118
 30
0.0
 11
16.76678019644888
 21
40.33102585723354
 31
0.0
  0
LINE
  5
2F01
330
2E4B
100
AcDbEntity
  8
V3 Burner Box
100
AcDbLine
 10
16.76678019644888
 20
40.33102585723354
 30
0.0
 11
16.76678019644888
 21
40.28422656915704
 31
0.0
  0
LINE
  5
2F02
330
2E4B
100
AcDbEntity
  8
V3 Burner Box
100
AcDbLine
 10
16.76678019644888
 20
40.28422656915704
 30
0.0
 11
16.41679574695008
 21
39.85813312405232
 31
0.0
  0
ARC
  5
2F03
330
2E4B
100
AcDbEntity
  8
V3 Burner Box
100
AcDbCircle
 10
15.68755809178792
 20
39.73268733448289
 30
0.0
 40
0.7399487845973618
100
AcDbArc
 50
350.3065489045799
 51
9.760671915291423
  0
LINE
  5
2F04
330
2E4B
100
AcDbEntity
  8
V3 Burner Box
100
AcDbLine
 10
16.41694242112498
 20
39.60809719063256
 30
0.0
 11
16.76678019644888
 21
40.03463124262117
 31
0.0
  0
LINE
  5
2F05
330
2E4B
100
AcDbEntity
  8
V3 Burner Box
100
AcDbLine
 10
16.76678019644888
 20
40.03463124262117
 30
0.0
 11
16.76678019644888
 21
39.98783224672429
 31
0.0
  0
LINE
  5
2F06
330
2E4B
100
AcDbEntity
  8
V3 Burner Box
100
AcDbLine
 10
16.39325074354528
 20
39.87560546600118
 30
0.0
 11
16.39325074354528
 21
39.53241185549197
 31
0.0
  0
LINE
  5
2F07
330
2E4B
100
AcDbEntity
  8
V3 Burner Box
100
AcDbLine
 10
16.77176010608394
 20
40.28422656915704
 30
0.0
 11
16.76678019644888
 21
40.28422656915704
 31
0.0
  0
LINE
  5
2F08
330
2E4B
100
AcDbEntity
  8
V3 Burner Box
100
AcDbLine
 10
16.77176010608394
 20
40.33102585723354
 30
0.0
 11
16.76678019644888
 21
40.33102585723354
 31
0.0
  0
LINE
  5
2F09
330
2E4B
100
AcDbEntity
  8
V3 Burner Box
100
AcDbLine
 10
16.77176010608394
 20
40.03463124262117
 30
0.0
 11
16.76678019644888
 21
40.03463124262117
 31
0.0
  0
LINE
  5
2F0A
330
2E4B
100
AcDbEntity
  8
V3 Burner Box
100
AcDbLine
 10
16.76678019644888
 20
35.55816493516811
 30
0.0
 11
16.76678019644888
 21
35.51158215219836
 31
0.0
  0
LINE
  5
2F0B
330
2E4B
100
AcDbEntity
  8
V3 Burner Box
100
AcDbLine
 10
16.76678019644888
 20
35.80660819741793
 30
0.0
 11
16.41679574695008
 21
36.23459701179057
 31
0.0
  0
ARC
  5
2F0C
330
2E4B
100
AcDbEntity
  8
V3 Burner Box
100
AcDbCircle
 10
15.69124544951654
 20
36.1095501202599
 30
0.0
 40
0.7362472133647822
100
AcDbArc
 50
350.2887086658827
 51
9.778726888998928
  0
LINE
  5
2F0D
330
2E4B
100
AcDbEntity
  8
V3 Burner Box
100
AcDbLine
 10
16.41694242112498
 20
35.98535726786597
 30
0.0
 11
16.76678019644888
 21
35.55816493516811
 31
0.0
  0
LINE
  5
2F0E
330
2E4B
100
AcDbEntity
  8
V3 Burner Box
100
AcDbLine
 10
16.39325074354528
 20
35.96770494326425
 30
0.0
 11
16.76678019644888
 21
35.51158215219836
 31
0.0
  0
LINE
  5
2F0F
330
2E4B
100
AcDbEntity
  8
V3 Burner Box
100
AcDbLine
 10
16.6206097392447
 20
35.98535726786597
 30
0.0
 11
16.41694242112498
 21
35.98535726786597
 31
0.0
  0
LINE
  5
2F10
330
2E4B
100
AcDbEntity
  8
V3 Burner Box
100
AcDbLine
 10
16.6220186294266
 20
39.85813312405232
 30
0.0
 11
16.41679574695008
 21
39.85813312405232
 31
0.0
  0
LINE
  5
2F11
330
2E4B
100
AcDbEntity
  8
V3 Burner Box
100
AcDbLine
 10
16.39325074354528
 20
39.87553388199153
 30
0.0
 11
16.39325074354528
 21
40.00929371717865
 31
0.0
  0
LINE
  5
2F12
330
2E4B
100
AcDbEntity
  8
V3 Burner Box
100
AcDbLine
 10
16.39325074354528
 20
35.83572506639071
 30
0.0
 11
16.39325074354528
 21
35.96770494326425
 31
0.0
  0
LINE
  5
2F13
330
2E4B
100
AcDbEntity
  8
BURNER Radiant Tubes
  6
Continuous
100
AcDbLine
 10
39.55506231504049
 20
44.92768851007667
 30
0.0
 11
39.55506231504049
 21
40.96329848874783
 31
0.0
  0
LINE
  5
2F14
330
2E4B
100
AcDbEntity
  8
BURNER Radiant Tubes
  6
Continuous
100
AcDbLine
 10
39.63972895986615
 20
44.84302193829591
 30
0.0
 11
39.63972895986615
 21
41.04796513357348
 31
0.0
  0
LINE
  5
2F15
330
2E4B
100
AcDbEntity
  8
BURNER Radiant Tubes
  6
Continuous
100
AcDbLine
 10
43.53937686891838
 20
44.84302193829591
 30
0.0
 11
43.53937686891838
 21
41.04796513357348
 31
0.0
  0
LINE
  5
2F16
330
2E4B
100
AcDbEntity
  8
V3 Burner Box
100
AcDbLine
 10
16.77176010608394
 20
37.31197141867995
 30
0.0
 11
16.77176010608394
 21
41.73748963338254
 31
0.0
  0
LINE
  5
2F17
330
2E4B
100
AcDbEntity
  8
V3 Burner Box
100
AcDbLine
 10
16.92714883065412
 20
37.10067119987339
 30
0.0
 11
16.92714883065412
 21
37.31197141867995
 31
0.0
  0
ARC
  5
2F18
330
2E4B
100
AcDbEntity
  8
V3 Burner Box
100
AcDbCircle
 10
16.90772533320339
 20
37.2380168409186
 30
0.0
 40
0.1387122826837494
100
AcDbArc
 50
191.421765500252
 51
278.0494222410637
  0
SPLINE
  5
2F19
330
2E4B
100
AcDbEntity
  8
V3 Burner Box
100
AcDbSpline
210
0.0
220
0.0
230
1.0
 70
    24
 71
     3
 72
    19
 73
    15
 74
     0
 42
0.0000000001
 43
0.0000000001
 40
0.0
 40
0.0
 40
0.0
 40
0.0
 40
0.063059355195169
 40
0.1256589138930676
 40
0.1879482627571258
 40
0.2500792290769784
 40
0.3122048013557642
 40
0.3744780078516985
 40
0.4370507936679167
 40
0.5000729371058581
 40
0.6255632843448912
 40
0.7499007096737196
 40
0.8743065127319205
 40
1.0
 40
1.0
 40
1.0
 40
1.0
 10
16.77176031998374
 20
37.21054793027966
 30
0.0
 10
16.77176031998374
 20
37.2122456647124
 30
0.0
 10
16.77176031998374
 20
37.2156287545686
 30
0.0
 10
16.77176031998374
 20
37.22098314643849
 30
0.0
 10
16.77176031998374
 20
37.22651378333765
 30
0.0
 10
16.77176031998374
 20
37.23224205864025
 30
0.0
 10
16.77176031998374
 20
37.23816217501918
 30
0.0
 10
16.77176031998374
 20
37.244275475121
 30
0.0
 10
16.77176031998374
 20
37.25058170460496
 30
0.0
 10
16.77176031998374
 20
37.25920467491409
 30
0.0
 10
16.77176031998374
 20
37.27027652057062
 30
0.0
 10
16.77176031998374
 20
37.2839253967781
 30
0.0
 10
16.77176031998374
 20
37.29785638544496
 30
0.0
 10
16.77176031998374
 20
37.30725027013349
 30
0.0
 10
16.77176031998374
 20
37.31197139558712
 30
0.0
  0
LINE
  5
2F1A
330
2E4B
100
AcDbEntity
  8
V3 Burner Box
100
AcDbLine
 10
27.377007103431
 20
37.10067119987339
 30
0.0
 11
27.377007103431
 21
37.31197141867995
 31
0.0
  0
LINE
  5
2F1B
330
2E4B
100
AcDbEntity
  8
V3 Burner Box
100
AcDbLine
 10
16.92714883065412
 20
37.10067119987339
 30
0.0
 11
27.377007103431
 21
37.10067119987339
 31
0.0
  0
SPLINE
  5
2F1C
330
2E4B
100
AcDbEntity
  8
V3 Burner Box
100
AcDbSpline
210
0.0
220
0.0
230
1.0
 70
     8
 71
     3
 72
     8
 73
     4
 74
     0
 42
0.0000000001
 43
0.0000000001
 40
0.0
 40
0.0
 40
0.0
 40
0.0
 40
1.0
 40
1.0
 40
1.0
 40
1.0
 10
27.53239561409905
 20
37.31197139558712
 30
0.0
 10
27.53239561410057
 20
38.71741863780001
 30
0.0
 10
27.53239561410135
 20
40.12286588001287
 30
0.0
 10
27.53239582800119
 20
41.73748963338254
 30
0.0
  0
SPLINE
  5
2F1D
330
2E4B
100
AcDbEntity
  8
V3 Burner Box
100
AcDbSpline
210
0.0
220
0.0
230
1.0
 70
     8
 71
     3
 72
    20
 73
    16
 74
     0
 42
0.0000000001
 43
0.0000000001
 40
0.0
 40
0.0
 40
0.0
 40
0.0
 40
0.0571076113968939
 40
0.1142154844886749
 40
0.1713246468711098
 40
0.2284361261380245
 40
0.2855509498803175
 40
0.323523731481265
 40
0.4280462888511203
 40
0.499027316493492
 40
0.5719640174872729
 40
0.6789717103013297
 40
0.785984692977412
 40
0.8929963335350215
 40
1.0
 40
1.0
 40
1.0
 40
1.0
 10
27.53239561410126
 20
37.21054732645491
 30
0.0
 10
27.53239561409869
 20
37.21208351292796
 30
0.0
 10
27.53239561409353
 20
37.21515589291359
 30
0.0
 10
27.53239561412539
 20
37.22001175686525
 30
0.0
 10
27.53239561397624
 20
37.22503631319707
 30
0.0
 10
27.53239561390666
 20
37.23023970901812
 30
0.0
 10
27.5323956119949
 20
37.23500189201747
 30
0.0
 10
27.53239561356783
 20
37.24141259175933
 30
0.0
 10
27.53239561409954
 20
37.2484973077794
 30
0.0
 10
27.53239561410328
 20
37.25701623704707
 30
0.0
 10
27.53239561408958
 20
37.26581840475414
 30
0.0
 10
27.53239561290913
 20
37.27613912549661
 30
0.0
 10
27.5323956124824
 20
37.28794117676304
 30
0.0
 10
27.5323956135054
 20
37.29991419933869
 30
0.0
 10
27.53239561390109
 20
37.30795243000434
 30
0.0
 10
27.53239561409892
 20
37.31197139558712
 30
0.0
  0
ARC
  5
2F1E
330
2E4B
100
AcDbEntity
  8
V3 Burner Box
100
AcDbCircle
 10
27.3964306086523
 20
37.23801697602163
 30
0.0
 40
0.138712417543792
100
AcDbArc
 50
261.9505823951026
 51
348.5779425723338
  0
LINE
  5
2F1F
330
2E4B
100
AcDbEntity
  8
V3 Burner Box
100
AcDbLine
 10
27.53239582800119
 20
34.82538017306611
 30
0.0
 11
27.53239582800119
 21
37.21054710328348
 31
0.0
  0
LINE
  5
2F20
330
2E4B
100
AcDbEntity
  8
V3 Burner Box
100
AcDbLine
 10
16.77176010608394
 20
34.82537958870685
 30
0.0
 11
16.77176010608394
 21
37.21054768764273
 31
0.0
  0
SPLINE
  5
2F21
330
2E4B
100
AcDbEntity
  8
V3 Burner Box
100
AcDbSpline
210
0.0
220
0.0
230
1.0
 70
     8
 71
     3
 72
    20
 73
    16
 74
     0
 42
0.0000000001
 43
0.0000000001
 40
0.0
 40
0.0
 40
0.0
 40
0.0
 40
0.0571076109422516
 40
0.1142154840540613
 40
0.1713246469122713
 40
0.2284361270917894
 40
0.2855509521645883
 40
0.3235240720500549
 40
0.4280462899475359
 40
0.4990273053559064
 40
0.571964016635859
 40
0.6789717090100826
 40
0.7859846918194383
 40
0.892996332876452
 40
1.0
 40
1.0
 40
1.0
 40
1.0
 10
27.53239561410194
 20
34.78336808550219
 30
0.0
 10
27.53239561409937
 20
34.78339622224043
 30
0.0
 10
27.53239561409421
 20
34.78345249584609
 30
0.0
 10
27.53239561412606
 20
34.78389943859426
 30
0.0
 10
27.53239561397679
 20
34.78461010243086
 30
0.0
 10
27.53239561390704
 20
34.78561219269271
 30
0.0
 10
27.53239561199466
 20
34.78674313752807
 30
0.0
 10
27.53239561356783
 20
34.78852984744519
 30
0.0
 10
27.53239561409994
 20
34.790873034935
 30
0.0
 10
27.53239561410408
 20
34.79420263291081
 30
0.0
 10
27.53239561408981
 20
34.79804267897815
 30
0.0
 10
27.53239561290847
 20
34.80311747373348
 30
0.0
 10
27.53239561248153
 20
34.80969249822208
 30
0.0
 10
27.53239561350486
 20
34.81704901557002
 30
0.0
 10
27.5323956139014
 20
34.82260301165901
 30
0.0
 10
27.53239561409966
 20
34.82537990623618
 30
0.0
  0
SPLINE
  5
2F22
330
2E4B
100
AcDbEntity
  8
V3 Burner Box
100
AcDbSpline
210
0.0
220
0.0
230
1.0
 70
    24
 71
     3
 72
    19
 73
    15
 74
     0
 42
0.0000000001
 43
0.0000000001
 40
0.0
 40
0.0
 40
0.0
 40
0.0
 40
0.0630593565784893
 40
0.1256589161226741
 40
0.187948265363048
 40
0.2500792316607099
 40
0.3122048035937301
 40
0.3744780094977003
 40
0.4370507945543102
 40
0.500072937143688
 40
0.625563282807773
 40
0.7499007071969804
 40
0.8743065105727712
 40
1.0
 40
1.0
 40
1.0
 40
1.0
 10
16.77176031998374
 20
34.78336892805108
 30
0.0
 10
16.77176031998374
 20
34.7834020870455
 30
0.0
 10
16.77176031998374
 20
34.78346816325569
 30
0.0
 10
16.77176031998374
 20
34.78399969051152
 30
0.0
 10
16.77176031998374
 20
34.7848487674206
 30
0.0
 10
16.77176031998374
 20
34.78604577628902
 30
0.0
 10
16.77176031998374
 20
34.78758262255728
 30
0.0
 10
16.77176031998374
 20
34.7894614162969
 30
0.0
 10
16.77176031998374
 20
34.7916815733951
 30
0.0
 10
16.77176031998374
 20
34.79508053385703
 30
0.0
 10
16.77176031998374
 20
34.80009032086832
 30
0.0
 10
16.77176031998374
 20
34.80732999359101
 30
0.0
 10
16.77176031998374
 20
34.81567465004913
 30
0.0
 10
16.77176031998374
 20
34.82213333905896
 30
0.0
 10
16.77176031998374
 20
34.82537931048764
 30
0.0
  0
ARC
  5
2F23
330
2E4B
100
AcDbEntity
  8
V3 Burner Box
100
AcDbCircle
 10
16.92714855527785
 20
34.78336808550219
 30
0.0
 40
0.1553882352952651
100
AcDbArc
 50
179.9996893297936
 51
270.0
  0
LINE
  5
2F24
330
2E4B
100
AcDbEntity
  8
V3 Burner Box
100
AcDbLine
 10
27.377007103431
 20
34.62798010803674
 30
0.0
 11
16.92714883065412
 21
34.62798010803674
 31
0.0
  0
ARC
  5
2F25
330
2E4B
100
AcDbEntity
  8
V3 Burner Box
100
AcDbCircle
 10
27.37700737880726
 20
34.78336808550219
 30
0.0
 40
0.1553882352943986
100
AcDbArc
 50
270.0
 51
0.0
  0
LINE
  5
2F26
330
2E4B
100
AcDbEntity
  8
V3 Burner Box
100
AcDbLine
 10
27.53239582800119
 20
50.46606671310875
 30
0.0
 11
27.53239582800119
 21
46.24972500956292
 31
0.0
  0
LINE
  5
2F27
330
2E4B
100
AcDbEntity
  8
V3 Burner Box
100
AcDbLine
 10
27.377007103431
 20
50.67736693191529
 30
0.0
 11
27.377007103431
 21
50.46606671310875
 31
0.0
  0
ARC
  5
2F28
330
2E4B
100
AcDbEntity
  8
V3 Burner Box
100
AcDbCircle
 10
27.39643060088174
 20
50.5400212908701
 30
0.0
 40
0.1387122826837494
100
AcDbArc
 50
11.4217655002571
 51
98.04942224106371
  0
SPLINE
  5
2F29
330
2E4B
100
AcDbEntity
  8
V3 Burner Box
100
AcDbSpline
210
0.0
220
0.0
230
1.0
 70
    24
 71
     3
 72
     9
 73
     5
 74
     0
 42
0.0000000001
 43
0.0000000001
 40
0.0
 40
0.0
 40
0.0
 40
0.0
 40
0.5000014071560247
 40
1.0
 40
1.0
 40
1.0
 40
1.0
 10
27.53239582800119
 20
50.56749044414598
 30
0.0
 10
27.53239582800119
 20
50.55267560104276
 30
0.0
 10
27.53239582800119
 20
50.52304599822324
 30
0.0
 10
27.53239582800119
 20
50.48505977251188
 30
0.0
 10
27.53239582800119
 20
50.46606671310875
 30
0.0
  0
LINE
  5
2F2A
330
2E4B
100
AcDbEntity
  8
V3 Burner Box
100
AcDbLine
 10
16.92714883065412
 20
50.67736693191529
 30
0.0
 11
16.92714883065412
 21
50.46606671310875
 31
0.0
  0
LINE
  5
2F2B
330
2E4B
100
AcDbEntity
  8
V3 Burner Box
100
AcDbLine
 10
27.377007103431
 20
50.67736693191529
 30
0.0
 11
16.92714883065412
 21
50.67736693191529
 31
0.0
  0
SPLINE
  5
2F2C
330
2E4B
100
AcDbEntity
  8
V3 Burner Box
100
AcDbSpline
210
0.0
220
0.0
230
1.0
 70
    24
 71
     1
 72
     4
 73
     2
 74
     0
 42
0.0000000001
 43
0.0000000001
 40
0.0
 40
0.0
 40
1.0
 40
1.0
 10
16.77176010608394
 20
50.46606671310875
 30
0.0
 10
16.77176010608394
 20
46.24972500956292
 30
0.0
  0
SPLINE
  5
2F2D
330
2E4B
100
AcDbEntity
  8
V3 Burner Box
100
AcDbSpline
210
0.0
220
0.0
230
1.0
 70
    24
 71
     3
 72
     9
 73
     5
 74
     0
 42
0.0000000001
 43
0.0000000001
 40
0.0
 40
0.0
 40
0.0
 40
0.0
 40
0.4990128178920527
 40
1.0
 40
1.0
 40
1.0
 40
1.0
 10
16.77176010608394
 20
50.5674910285052
 30
0.0
 10
16.77176010608394
 20
50.55270877991649
 30
0.0
 10
16.77176010608394
 20
50.52308579617996
 30
0.0
 10
16.77176010608394
 20
50.48509807466515
 30
0.0
 10
16.77176010608394
 20
50.46606671310875
 30
0.0
  0
ARC
  5
2F2E
330
2E4B
100
AcDbEntity
  8
V3 Burner Box
100
AcDbCircle
 10
16.90772532543283
 20
50.54002115576706
 30
0.0
 40
0.1387124175437911
100
AcDbArc
 50
81.95058239510256
 51
168.5779425723338
  0
LINE
  5
2F2F
330
2E4B
100
AcDbEntity
  8
V3 Burner Box
100
AcDbLine
 10
16.77176010608394
 20
52.95265795872258
 30
0.0
 11
16.77176010608394
 21
50.5674910285052
 31
0.0
  0
LINE
  5
2F30
330
2E4B
100
AcDbEntity
  8
V3 Burner Box
100
AcDbLine
 10
27.53239582800119
 20
52.95265854308185
 30
0.0
 11
27.53239582800119
 21
50.56749044414598
 31
0.0
  0
SPLINE
  5
2F31
330
2E4B
100
AcDbEntity
  8
V3 Burner Box
100
AcDbSpline
210
0.0
220
0.0
230
1.0
 70
    24
 71
     3
 72
     9
 73
     5
 74
     0
 42
0.0000000001
 43
0.0000000001
 40
0.0
 40
0.0
 40
0.0
 40
0.0
 40
0.4990117529007352
 40
0.9999999999999998
 40
0.9999999999999998
 40
0.9999999999999998
 40
0.9999999999999998
 10
16.77176010608394
 20
52.99466988354105
 30
0.0
 10
16.77176010608394
 20
52.9927198604654
 30
0.0
 10
16.77176010608394
 20
52.98881209062976
 30
0.0
 10
16.77176010608394
 20
52.9647252052214
 30
0.0
 10
16.77176010608394
 20
52.95265795872258
 30
0.0
  0
SPLINE
  5
2F32
330
2E4B
100
AcDbEntity
  8
V3 Burner Box
100
AcDbSpline
210
0.0
220
0.0
230
1.0
 70
    24
 71
     3
 72
     9
 73
     5
 74
     0
 42
0.0000000001
 43
0.0000000001
 40
0.0
 40
0.0
 40
0.0
 40
0.0
 40
0.499999533815269
 40
1.0
 40
1.0
 40
1.0
 40
1.0
 10
27.53239582800119
 20
52.99466929918178
 30
0.0
 10
27.53239582800119
 20
52.99271110489399
 30
0.0
 10
27.53239582800119
 20
52.98879471266694
 30
0.0
 10
27.53239582800119
 20
52.96470394043071
 30
0.0
 10
27.53239582800119
 20
52.95265854308185
 30
0.0
  0
LINE
  5
2F33
330
2E4B
100
AcDbEntity
  8
V3 Burner Box
100
AcDbLine
 10
16.92714883065412
 20
53.15005802375195
 30
0.0
 11
27.377007103431
 21
53.15005802375195
 31
0.0
  0
ARC
  5
2F34
330
2E4B
100
AcDbEntity
  8
V3 Burner Box
100
AcDbCircle
 10
27.37700737880726
 20
52.99467004628649
 30
0.0
 40
0.1553882352952607
100
AcDbArc
 50
359.9996893297937
 51
90.0
  0
ARC
  5
2F35
330
2E4B
100
AcDbEntity
  8
V3 Burner Box
100
AcDbCircle
 10
16.92714855527785
 20
52.99467004628649
 30
0.0
 40
0.1553882352943986
100
AcDbArc
 50
90.0
 51
180.0
  0
LINE
  5
2F36
330
2E4B
100
AcDbEntity
  8
V3 Burner Box
100
AcDbLine
 10
17.47050944730068
 20
41.1417375566071
 30
0.0
 11
17.47050944730068
 21
41.73748963338254
 31
0.0
  0
LINE
  5
2F37
330
2E4B
100
AcDbEntity
  8
V3 Burner Box
100
AcDbLine
 10
17.47050944730068
 20
46.24972500956292
 30
0.0
 11
17.47050944730068
 21
46.63630057518155
 31
0.0
  0
LINE
  5
2F38
330
2E4B
100
AcDbEntity
  8
V3 Burner Box
100
AcDbLine
 10
17.48545063710401
 20
43.83998067290963
 30
0.0
 11
17.48545063710401
 21
43.90891571811514
 31
0.0
  0
LINE
  5
2F39
330
2E4B
100
AcDbEntity
  8
V3 Burner Box
100
AcDbLine
 10
17.48545063710401
 20
43.90891571811514
 30
0.0
 11
17.48545063710401
 21
43.93805926674049
 31
0.0
  0
ELLIPSE
  5
2F3A
330
2E4B
100
AcDbEntity
  8
V3 Burner Box
100
AcDbEllipse
 10
-3650.794053998593
 20
43.88901906591279
 30
0.0
 11
-3668.282487231742
 21
0.0000000000184457
 31
0.0
210
0.0
220
0.0
230
1.0
 40
0.0104735558697002
 41
3.142869065065816
 42
3.144719211335901
  0
LINE
  5
2F3B
330
2E4B
100
AcDbEntity
  8
V3 Burner Box
100
AcDbLine
 10
17.47050944730068
 20
44.00914245768271
 30
0.0
 11
17.47050944730068
 21
46.24972500956292
 31
0.0
  0
LINE
  5
2F3C
330
2E4B
100
AcDbEntity
  8
V3 Burner Box
100
AcDbLine
 10
17.47050944730068
 20
41.73748963338254
 30
0.0
 11
17.47050944730068
 21
43.76889567410596
 31
0.0
  0
ELLIPSE
  5
2F3D
330
2E4B
100
AcDbEntity
  8
V3 Burner Box
100
AcDbEllipse
 10
-3650.794053998593
 20
43.88901906591279
 30
0.0
 11
-3668.282487231742
 21
0.0000000000184457
 31
0.0
210
0.0
220
0.0
230
1.0
 40
0.0104735558697002
 41
3.138466095845273
 42
3.140316277246221
  0
LINE
  5
2F3E
330
2E4B
100
AcDbEntity
  8
V3 Burner Box
100
AcDbLine
 10
26.81870529698111
 20
43.93805745887904
 30
0.0
 11
26.81870529698111
 21
43.90891571811514
 31
0.0
  0
LINE
  5
2F3F
330
2E4B
100
AcDbEntity
  8
V3 Burner Box
100
AcDbLine
 10
26.81870529698111
 20
43.90891571811514
 30
0.0
 11
26.81870529698111
 21
43.83997886504817
 31
0.0
  0
ELLIPSE
  5
2F40
330
2E4B
100
AcDbEntity
  8
V3 Burner Box
100
AcDbEllipse
 10
3695.088295371636
 20
43.88901906591232
 30
0.0
 11
-3668.272572670701
 21
-0.000000000018001
 31
0.0
210
0.0
220
0.0
230
1.0
 40
0.0104735700232019
 41
0.0012764131996538
 42
0.0031265619700998
  0
LINE
  5
2F41
330
2E4B
100
AcDbEntity
  8
V3 Burner Box
100
AcDbLine
 10
26.83364648678445
 20
43.76889567410596
 30
0.0
 11
26.83364648678445
 21
41.73748963338254
 31
0.0
  0
LINE
  5
2F42
330
2E4B
100
AcDbEntity
  8
V3 Burner Box
100
AcDbLine
 10
26.83364648678445
 20
46.24972500956292
 30
0.0
 11
26.83364648678445
 21
44.00914245768271
 31
0.0
  0
ELLIPSE
  5
2F43
330
2E4B
100
AcDbEntity
  8
V3 Burner Box
100
AcDbEllipse
 10
3695.088295371636
 20
43.88901906591232
 30
0.0
 11
-3668.272572670701
 21
-0.000000000018001
 31
0.0
210
0.0
220
0.0
230
1.0
 40
0.0104735700232019
 41
6.280058745211043
 42
6.281908929112416
  0
LINE
  5
2F44
330
2E4B
100
AcDbEntity
  8
V3 Burner Box
100
AcDbLine
 10
26.83364648678445
 20
46.63630057518155
 30
0.0
 11
26.83364648678445
 21
46.24972500956292
 31
0.0
  0
LINE
  5
2F45
330
2E4B
100
AcDbEntity
  8
V3 Burner Box
100
AcDbLine
 10
26.83364648678445
 20
41.73748963338254
 30
0.0
 11
26.83364648678445
 21
41.1417375566071
 31
0.0
  0
LINE
  5
2F46
330
2E4B
100
AcDbEntity
  8
V3 Burner Box
100
AcDbLine
 10
17.67075709501623
 20
46.78698433114968
 30
0.0
 11
26.63339883906889
 21
46.78698433114968
 31
0.0
  0
LINE
  5
2F47
330
2E4B
100
AcDbEntity
  8
V3 Burner Box
100
AcDbLine
 10
17.67075709501623
 20
40.99105380063899
 30
0.0
 11
26.63339883906889
 21
40.99105380063899
 31
0.0
  0
ELLIPSE
  5
2F48
330
2E4B
100
AcDbEntity
  8
V3 Burner Box
100
AcDbEllipse
 10
26.56952141446206
 20
41.18980452799674
 30
0.0
 11
-0.2562846120245637
 21
0.0932799702774286
 31
0.0
210
0.0
220
0.0
230
1.0
 40
0.6847910787717107
 41
2.059329530386835
 42
3.385859255385281
  0
ELLIPSE
  5
2F49
330
2E4B
100
AcDbEntity
  8
V3 Burner Box
100
AcDbEllipse
 10
26.56952141446206
 20
46.58823360379172
 30
0.0
 11
0.2562846120245592
 21
0.0932799702774196
 31
0.0
210
0.0
220
0.0
230
0.9999999999999998
 40
0.6847910787717538
 41
6.038918705386064
 42
7.365448430382351
  0
ELLIPSE
  5
2F4A
330
2E4B
100
AcDbEntity
  8
V3 Burner Box
100
AcDbEllipse
 10
17.73463451962307
 20
41.18980452799642
 30
0.0
 11
-0.2562846120245592
 21
-0.0932799702774196
 31
0.0
210
0.0
220
0.0
230
0.9999999999999998
 40
0.6847910787717341
 41
6.038918705383973
 42
7.365448430382002
  0
ELLIPSE
  5
2F4B
330
2E4B
100
AcDbEntity
  8
V3 Burner Box
100
AcDbEllipse
 10
17.73463451962307
 20
46.58823360379246
 30
0.0
 11
0.2562846120245681
 21
-0.0932799702774241
 31
0.0
210
0.0
220
0.0
230
0.9999999999999998
 40
0.6847910787717037
 41
2.059329530387128
 42
3.385859255386571
  0
LINE
  5
2F4C
330
2E4B
100
AcDbEntity
  8
V3 Burner Box
100
AcDbLine
 10
27.377007103431
 20
46.24972500956292
 30
0.0
 11
27.377007103431
 21
41.73748963338254
 31
0.0
  0
LINE
  5
2F4D
330
2E4B
100
AcDbEntity
  8
V3 Burner Box
100
AcDbLine
 10
16.92714883065412
 20
41.73748963338254
 30
0.0
 11
16.92714883065412
 21
46.24972500956292
 31
0.0
  0
LINE
  5
2F4E
330
2E4B
100
AcDbEntity
  8
V3 Burner Box
100
AcDbLine
 10
27.53239582800119
 20
41.73748963338254
 30
0.0
 11
27.53239582800119
 21
46.24972500956292
 31
0.0
  0
LINE
  5
2F4F
330
2E4B
100
AcDbEntity
  8
V3 Burner Box
100
AcDbLine
 10
16.77176010608394
 20
46.24972500956292
 30
0.0
 11
16.77176010608394
 21
41.73748963338254
 31
0.0
  0
LINE
  5
2F50
330
2E4B
100
AcDbEntity
  8
V3 Burner Box
100
AcDbLine
 10
27.53239582800119
 20
39.79343871010053
 30
0.0
 11
27.54235623163057
 21
39.79343871010053
 31
0.0
  0
LINE
  5
2F51
330
2E4B
100
AcDbEntity
  8
V3 Burner Box
100
AcDbLine
 10
27.54235623163057
 20
39.87497318927914
 30
0.0
 11
27.53239582800119
 21
39.87497318927914
 31
0.0
  0
LINE
  5
2F52
330
2E4B
100
AcDbEntity
  8
V3 Burner Box
100
AcDbLine
 10
27.54235623163057
 20
39.87497318927914
 30
0.0
 11
27.54235623163057
 21
39.79343871010053
 31
0.0
  0
LINE
  5
2F53
330
2E4B
100
AcDbEntity
  8
V3 Burner Box
100
AcDbLine
 10
27.54235623163057
 20
39.74363493887585
 30
0.0
 11
27.53239582800119
 21
39.74363493887585
 31
0.0
  0
LINE
  5
2F54
330
2E4B
100
AcDbEntity
  8
V3 Burner Box
100
AcDbLine
 10
27.54235623163057
 20
39.74363493887585
 30
0.0
 11
27.54235623163057
 21
39.66226933952409
 31
0.0
  0
LINE
  5
2F55
330
2E4B
100
AcDbEntity
  8
V3 Burner Box
100
AcDbLine
 10
27.53239582800119
 20
39.66226933952409
 30
0.0
 11
27.54235623163057
 21
39.66226933952409
 31
0.0
  0
LINE
  5
2F56
330
2E4B
100
AcDbEntity
  8
V3 Burner Box
100
AcDbLine
 10
27.53239582800119
 20
39.74404252946145
 30
0.0
 11
27.54235623163057
 21
39.74404252946145
 31
0.0
  0
LINE
  5
2F57
330
2E4B
100
AcDbEntity
  8
V3 Burner Box
100
AcDbLine
 10
27.54235623163057
 20
39.74363493887585
 30
0.0
 11
27.54235623163057
 21
39.74404252946145
 31
0.0
  0
LINE
  5
2F58
330
2E4B
100
AcDbEntity
  8
V3 Burner Box
100
AcDbLine
 10
27.53239582800119
 20
39.87521190003788
 30
0.0
 11
27.54235623163057
 21
39.87521190003788
 31
0.0
  0
LINE
  5
2F59
330
2E4B
100
AcDbEntity
  8
V3 Burner Box
100
AcDbLine
 10
27.54235623163057
 20
39.87521190003788
 30
0.0
 11
27.54235623163057
 21
39.87497318927914
 31
0.0
  0
LINE
  5
2F5A
330
2E4B
100
AcDbEntity
  8
V3 Burner Box
100
AcDbLine
 10
16.76802488167801
 20
35.80660819741793
 30
0.0
 11
16.76802488167801
 21
35.75875910792635
 31
0.0
  0
LINE
  5
2F5B
330
2E4B
100
AcDbEntity
  8
V3 Burner Box
100
AcDbLine
 10
16.66841733922867
 20
35.89424397165636
 30
0.0
 11
16.69511671393246
 21
35.89424397165636
 31
0.0
  0
LINE
  5
2F5C
330
2E4B
100
AcDbEntity
  8
V3 Burner Box
100
AcDbLine
 10
16.66841733922867
 20
35.89424397165636
 30
0.0
 11
16.66841733922867
 21
35.92689446108951
 31
0.0
  0
LINE
  5
2F5D
330
2E4B
100
AcDbEntity
  8
V3 Burner Box
100
AcDbLine
 10
16.76802488167801
 20
35.78583890051002
 30
0.0
 11
16.66841733922867
 21
35.78583890051002
 31
0.0
  0
LINE
  5
2F5E
330
2E4B
100
AcDbEntity
  8
V3 Burner Box
100
AcDbLine
 10
16.66841733922867
 20
35.78583890051002
 30
0.0
 11
16.66841733922867
 21
35.89424397165636
 31
0.0
  0
LINE
  5
2F5F
330
2E4B
100
AcDbEntity
  8
V3 Burner Box
100
AcDbLine
 10
16.76802488167801
 20
40.08291743284114
 30
0.0
 11
16.76802488167801
 21
40.03463124262117
 31
0.0
  0
LINE
  5
2F60
330
2E4B
100
AcDbEntity
  8
V3 Burner Box
100
AcDbLine
 10
16.68833873084668
 20
40.02236700259937
 30
0.0
 11
16.66841733922867
 21
40.02236700259937
 31
0.0
  0
LINE
  5
2F61
330
2E4B
100
AcDbEntity
  8
V3 Burner Box
100
AcDbLine
 10
16.68833873084668
 20
40.02236700259937
 30
0.0
 11
16.68833873084668
 21
40.04770219060488
 31
0.0
  0
LINE
  5
2F62
330
2E4B
100
AcDbEntity
  8
V3 Burner Box
100
AcDbLine
 10
16.76802488167801
 20
40.04770219060488
 30
0.0
 11
16.68833873084668
 21
40.04770219060488
 31
0.0
  0
LINE
  5
2F63
330
2E4B
100
AcDbEntity
  8
V3 Burner Box
100
AcDbLine
 10
16.66841733922867
 20
39.93950047648188
 30
0.0
 11
16.68875479464158
 21
39.93950047648188
 31
0.0
  0
LINE
  5
2F64
330
2E4B
100
AcDbEntity
  8
V3 Burner Box
100
AcDbLine
 10
16.66841733922867
 20
39.93950047648188
 30
0.0
 11
16.66841733922867
 21
40.02236700259937
 31
0.0
  0
LINE
  5
2F65
330
2E4B
100
AcDbEntity
  8
V3 Burner Box
100
AcDbLine
 10
16.66841733922867
 20
39.91470406771642
 30
0.0
 11
16.66841733922867
 21
39.93950047648188
 31
0.0
  0
LINE
  5
2F66
330
2E4B
100
AcDbEntity
  8
V3 Burner Box
100
AcDbLine
 10
16.66841733922867
 20
40.04960720180064
 30
0.0
 11
16.68833873084668
 21
40.04960720180064
 31
0.0
  0
LINE
  5
2F67
330
2E4B
100
AcDbEntity
  8
V3 Burner Box
100
AcDbLine
 10
16.66841733922867
 20
40.04960720180064
 30
0.0
 11
16.66841733922867
 21
40.05583764025745
 31
0.0
  0
LINE
  5
2F68
330
2E4B
100
AcDbEntity
  8
V3 Burner Box
100
AcDbLine
 10
16.76802488167801
 20
40.05583764025745
 30
0.0
 11
16.66841733922867
 21
40.05583764025745
 31
0.0
  0
LINE
  5
2F69
330
2E4B
100
AcDbEntity
  8
V3 Burner Box
100
AcDbLine
 10
16.68833873084668
 20
40.04770219060488
 30
0.0
 11
16.68833873084668
 21
40.04960720180064
 31
0.0
  0
LINE
  5
2F6A
330
2E4B
100
AcDbEntity
  8
V3 Burner Box
100
AcDbLine
 10
16.66841733922867
 20
40.04960720180064
 30
0.0
 11
16.66841733922867
 21
40.02236700259937
 31
0.0
  0
LINE
  5
2F6B
330
2E4B
100
AcDbEntity
  8
V3 Burner Box
100
AcDbLine
 10
16.77176010608394
 20
49.74761511499742
 30
0.0
 11
16.76179970245456
 21
49.74761511499742
 31
0.0
  0
LINE
  5
2F6C
330
2E4B
100
AcDbEntity
  8
V3 Burner Box
100
AcDbLine
 10
16.77176010608394
 20
49.6647482967003
 30
0.0
 11
16.76179970245456
 21
49.6647482967003
 31
0.0
  0
LINE
  5
2F6D
330
2E4B
100
AcDbEntity
  8
V3 Burner Box
100
AcDbLine
 10
16.76179970245456
 20
49.6647482967003
 30
0.0
 11
16.76179970245456
 21
49.74761511499742
 31
0.0
  0
LINE
  5
2F6E
330
2E4B
100
AcDbEntity
  8
V3 Burner Box
100
AcDbLine
 10
16.77176010608394
 20
49.55634322555393
 30
0.0
 11
16.76179970245456
 21
49.55634322555393
 31
0.0
  0
LINE
  5
2F6F
330
2E4B
100
AcDbEntity
  8
V3 Burner Box
100
AcDbLine
 10
16.76179970245456
 20
49.55634322555393
 30
0.0
 11
16.76179970245456
 21
49.6647482967003
 31
0.0
  0
LINE
  5
2F70
330
2E4B
100
AcDbEntity
  8
V3 Burner Box
100
AcDbLine
 10
16.76179970245456
 20
49.77485502201904
 30
0.0
 11
16.77176010608394
 21
49.77485502201904
 31
0.0
  0
LINE
  5
2F71
330
2E4B
100
AcDbEntity
  8
V3 Burner Box
100
AcDbLine
 10
16.76179970245456
 20
49.77485502201904
 30
0.0
 11
16.76179970245456
 21
49.78108546047586
 31
0.0
  0
LINE
  5
2F72
330
2E4B
100
AcDbEntity
  8
V3 Burner Box
100
AcDbLine
 10
16.77176010608394
 20
49.78108546047586
 30
0.0
 11
16.76179970245456
 21
49.78108546047586
 31
0.0
  0
LINE
  5
2F73
330
2E4B
100
AcDbEntity
  8
V3 Burner Box
100
AcDbLine
 10
16.76179970245456
 20
49.77485502201904
 30
0.0
 11
16.76179970245456
 21
49.74761511499742
 31
0.0
  0
LINE
  5
2F74
330
2E4B
100
AcDbEntity
  8
V3 Burner Box
100
AcDbLine
 10
16.77176010608394
 20
48.0044778629004
 30
0.0
 11
16.76179970245456
 21
48.0044778629004
 31
0.0
  0
LINE
  5
2F75
330
2E4B
100
AcDbEntity
  8
V3 Burner Box
100
AcDbLine
 10
16.77176010608394
 20
47.92161104460324
 30
0.0
 11
16.76179970245456
 21
47.92161104460324
 31
0.0
  0
LINE
  5
2F76
330
2E4B
100
AcDbEntity
  8
V3 Burner Box
100
AcDbLine
 10
16.76179970245456
 20
47.92161104460324
 30
0.0
 11
16.76179970245456
 21
48.0044778629004
 31
0.0
  0
LINE
  5
2F77
330
2E4B
100
AcDbEntity
  8
V3 Burner Box
100
AcDbLine
 10
16.77176010608394
 20
47.81320597345689
 30
0.0
 11
16.76179970245456
 21
47.81320597345689
 31
0.0
  0
LINE
  5
2F78
330
2E4B
100
AcDbEntity
  8
V3 Burner Box
100
AcDbLine
 10
16.76179970245456
 20
47.81320597345689
 30
0.0
 11
16.76179970245456
 21
47.92161104460324
 31
0.0
  0
LINE
  5
2F79
330
2E4B
100
AcDbEntity
  8
V3 Burner Box
100
AcDbLine
 10
16.76179970245456
 20
48.031717769922
 30
0.0
 11
16.77176010608394
 21
48.031717769922
 31
0.0
  0
LINE
  5
2F7A
330
2E4B
100
AcDbEntity
  8
V3 Burner Box
100
AcDbLine
 10
16.76179970245456
 20
48.031717769922
 30
0.0
 11
16.76179970245456
 21
48.03794820837881
 31
0.0
  0
LINE
  5
2F7B
330
2E4B
100
AcDbEntity
  8
V3 Burner Box
100
AcDbLine
 10
16.77176010608394
 20
48.03794820837881
 30
0.0
 11
16.76179970245456
 21
48.03794820837881
 31
0.0
  0
LINE
  5
2F7C
330
2E4B
100
AcDbEntity
  8
V3 Burner Box
100
AcDbLine
 10
16.76179970245456
 20
48.031717769922
 30
0.0
 11
16.76179970245456
 21
48.0044778629004
 31
0.0
  0
ARC
  5
2F7D
330
2E4B
100
AcDbEntity
  8
V3 Burner Box
100
AcDbCircle
 10
18.67078384939549
 20
41.65282298746297
 30
0.0
 40
0.1294901960784322
100
AcDbArc
 50
180.0
 51
270.0
  0
LINE
  5
2F7E
330
2E4B
100
AcDbEntity
  8
V3 Burner Box
100
AcDbLine
 10
18.54129374260717
 20
46.12521514323178
 30
0.0
 11
18.54129374260717
 21
41.65282298855688
 31
0.0
  0
ARC
  5
2F7F
330
2E4B
100
AcDbEntity
  8
V3 Burner Box
100
AcDbCircle
 10
18.67078384939549
 20
46.12521514432571
 30
0.0
 40
0.1294901960784322
100
AcDbArc
 50
90.0
 51
180.0
  0
LINE
  5
2F80
330
2E4B
100
AcDbEntity
  8
V3 Burner Box
100
AcDbLine
 10
25.63337197724232
 20
46.25470535746744
 30
0.0
 11
18.67078395684281
 21
46.25470535746744
 31
0.0
  0
ARC
  5
2F81
330
2E4B
100
AcDbEntity
  8
V3 Burner Box
100
AcDbCircle
 10
25.63337208468963
 20
46.12521514432571
 30
0.0
 40
0.1294901960784322
100
AcDbArc
 50
0.0
 51
90.0
  0
LINE
  5
2F82
330
2E4B
100
AcDbEntity
  8
V3 Burner Box
100
AcDbLine
 10
25.76286219147796
 20
41.64784264065239
 30
0.0
 11
25.76286219147796
 21
46.12521514323178
 31
0.0
  0
ARC
  5
2F83
330
2E4B
100
AcDbEntity
  8
V3 Burner Box
100
AcDbCircle
 10
25.63835247684648
 20
41.6478425953061
 30
0.0
 40
0.1245098039215713
100
AcDbArc
 50
270.0
 51
0.0
  0
LINE
  5
2F84
330
2E4B
100
AcDbEntity
  8
V3 Burner Box
100
AcDbLine
 10
18.67078395684281
 20
41.52333277432123
 30
0.0
 11
25.63835247123663
 21
41.52333277432123
 31
0.0
  0
LINE
  5
2F85
330
2E4B
100
AcDbEntity
  8
V3 Burner Box
100
AcDbLine
 10
27.63075810086216
 20
46.99180342137582
 30
0.0
 11
27.63075810086216
 21
47.52096995153613
 31
0.0
  0
LINE
  5
2F86
330
2E4B
100
AcDbEntity
  8
V3 Burner Box
100
AcDbLine
 10
27.63075810086216
 20
46.46263659903581
 30
0.0
 11
27.63075810086216
 21
46.99180342137582
 31
0.0
  0
LINE
  5
2F87
330
2E4B
100
AcDbEntity
  8
V3 Burner Box
100
AcDbLine
 10
31.81428773963873
 20
46.99180342137582
 30
0.0
 11
31.81428773963873
 21
47.52096995153613
 31
0.0
  0
LINE
  5
2F88
330
2E4B
100
AcDbEntity
  8
V3 Burner Box
100
AcDbLine
 10
31.81428773963873
 20
46.46263659903581
 30
0.0
 11
31.81428773963873
 21
46.99180342137582
 31
0.0
  0
LINE
  5
2F89
330
2E4B
100
AcDbEntity
  8
V3 Burner Box
100
AcDbLine
 10
16.55960380095783
 20
42.36254250620861
 30
0.0
 11
16.55960380095783
 21
43.5279269329216
 31
0.0
  0
LINE
  5
2F8A
330
2E4B
100
AcDbEntity
  8
V3 Burner Box
100
AcDbLine
 10
16.21167454298526
 20
42.49011646033268
 30
0.0
 11
16.21167454298526
 21
43.40035305184243
 31
0.0
  0
LINE
  5
2F8B
330
2E4B
100
AcDbEntity
  8
V3 Burner Box
100
AcDbLine
 10
16.20095914718872
 20
42.49201913409139
 30
0.0
 11
16.20095914718872
 21
43.39845045112862
 31
0.0
  0
LINE
  5
2F8C
330
2E4B
100
AcDbEntity
  8
V3 Burner Box
100
AcDbLine
 10
15.95746599225158
 20
49.66871083685932
 30
0.0
 11
15.95746599225158
 21
50.07336793895799
 31
0.0
  0
LINE
  5
2F8D
330
2E4B
100
AcDbEntity
  8
V3 Burner Box
100
AcDbLine
 10
15.95746599225158
 20
49.26405431911992
 30
0.0
 11
15.95746599225158
 21
49.66871083685932
 31
0.0
  0
LINE
  5
2F8E
330
2E4B
100
AcDbEntity
  8
V3 Burner Box
100
AcDbLine
 10
27.72663100326483
 20
44.92768851007667
 30
0.0
 11
27.72663100326483
 21
40.96329848874783
 31
0.0
  0
LINE
  5
2F8F
330
2E4B
100
AcDbEntity
  8
V3 Burner Box
100
AcDbLine
 10
16.92714883065412
 20
41.73748963338254
 30
0.0
 11
16.92714883065412
 21
37.31197141867995
 31
0.0
  0
LINE
  5
2F90
330
2E4B
100
AcDbEntity
  8
V3 Burner Box
100
AcDbLine
 10
27.377007103431
 20
37.31197141867995
 30
0.0
 11
27.377007103431
 21
41.73748963338254
 31
0.0
  0
LINE
  5
2F91
330
2E4B
100
AcDbEntity
  8
V3 Burner Box
100
AcDbLine
 10
27.377007103431
 20
46.24972500956292
 30
0.0
 11
27.377007103431
 21
50.46606671310875
 31
0.0
  0
LINE
  5
2F92
330
2E4B
100
AcDbEntity
  8
V3 Burner Box
100
AcDbLine
 10
16.92714883065412
 20
50.46606671310875
 30
0.0
 11
16.92714883065412
 21
46.24972500956292
 31
0.0
  0
ENDBLK
  5
2F93
330
2E4B
100
AcDbEntity
  8
0
100
AcDbBlockEnd
  0
BLOCK
  5
2FAD
330
2F96
100
AcDbEntity
  8
0
100
AcDbBlockBegin
  2
4 in - 20 ft Assy
 70
     0
 10
0.0
 20
0.0
 30
0.0
  3
4 in - 20 ft Assy
  1

  0
LINE
  5
2F97
330
2F96
100
AcDbEntity
  8
Center Lines
100
AcDbLine
 10
10.32233370260738
 20
40.00676650569547
 30
0.0
 11
131.8392114031925
 21
40.00676650569551
 31
0.0
  0
LINE
  5
2F98
330
2F96
100
AcDbEntity
  8
COMBUSTION Radiant Tubes
100
AcDbLine
 10
10.32233370260738
 20
38.01676650569551
 30
0.0
 11
126.3223337026073
 21
38.0167665056955
 31
0.0
  0
INSERT
  5
2F99
330
2F96
100
AcDbEntity
  8
0
100
AcDbBlockReference
  2
layers
 10
0.8387486649539821
 20
-3.611935436597064
 30
0.0
  0
LINE
  5
2F9A
330
2F96
100
AcDbEntity
  8
COMBUSTION Reflector
100
AcDbLine
 10
10.32233370260738
 20
33.3817665056955
 30
0.0
 11
130.3223337026073
 21
33.38176650569551
 31
0.0
  0
LINE
  5
2F9B
330
2F96
100
AcDbEntity
  8
COMBUSTION Reflector
100
AcDbLine
 10
10.32233370260739
 20
38.7567665056955
 30
0.0
 11
130.3223337026073
 21
38.75676650569551
 31
0.0
  0
LINE
  5
2F9C
330
2F96
100
AcDbEntity
  8
COMBUSTION Reflector
100
AcDbLine
 10
10.32233370260739
 20
46.63176650569549
 30
0.0
 11
130.3223337026073
 21
46.63176650569549
 31
0.0
  0
LINE
  5
2F9D
330
2F96
100
AcDbEntity
  8
COMBUSTION Reflector
100
AcDbLine
 10
130.3223337026073
 20
33.38176650569551
 30
0.0
 11
130.3223337026073
 21
46.63176650569549
 31
0.0
  0
LINE
  5
2F9E
330
2F96
100
AcDbEntity
  8
COMBUSTION Reflector
100
AcDbLine
 10
10.32233370260739
 20
41.25676650569547
 30
0.0
 11
130.3223337026073
 21
41.25676650569551
 31
0.0
  0
LINE
  5
2F9F
330
2F96
100
AcDbEntity
  8
COMBUSTION Radiant Tubes
100
AcDbLine
 10
126.4073337026073
 20
38.10176650569551
 30
0.0
 11
130.3223337026073
 21
38.10176650569551
 31
0.0
  0
LINE
  5
2FA0
330
2F96
100
AcDbEntity
  8
COMBUSTION Radiant Tubes
100
AcDbLine
 10
126.4073337026073
 20
41.91176650569551
 30
0.0
 11
130.3223337026073
 21
41.91176650569551
 31
0.0
  0
LINE
  5
2FA1
330
2F96
100
AcDbEntity
  8
COMBUSTION Radiant Tubes
100
AcDbLine
 10
10.32233370260738
 20
41.99676650569549
 30
0.0
 11
126.3223337026073
 21
41.99676650569549
 31
0.0
  0
LINE
  5
2FA2
330
2F96
100
AcDbEntity
  8
COMBUSTION Radiant Tubes
100
AcDbLine
 10
126.3223337026073
 20
41.99676650569549
 30
0.0
 11
126.3223337026073
 21
38.0167665056955
 31
0.0
  0
LINE
  5
2FA3
330
2F96
100
AcDbEntity
  8
COMBUSTION Radiant Tubes
100
AcDbLine
 10
126.4073337026073
 20
41.91176650569551
 30
0.0
 11
126.3223337026073
 21
41.99676650569549
 31
0.0
  0
LINE
  5
2FA4
330
2F96
100
AcDbEntity
  8
COMBUSTION Radiant Tubes
100
AcDbLine
 10
126.4073337026073
 20
41.91176650569551
 30
0.0
 11
126.4073337026073
 21
38.10176650569551
 31
0.0
  0
LINE
  5
2FA5
330
2F96
100
AcDbEntity
  8
COMBUSTION Radiant Tubes
100
AcDbLine
 10
126.4073337026073
 20
38.10176650569551
 30
0.0
 11
126.3223337026073
 21
38.0167665056955
 31
0.0
  0
LINE
  5
2FA6
330
2F96
100
AcDbEntity
  8
COMBUSTION Radiant Tubes
100
AcDbLine
 10
130.3223337026073
 20
38.10176650569551
 30
0.0
 11
130.3223337026073
 21
41.91176650569551
 31
0.0
  0
LINE
  5
2FA7
330
2F96
100
AcDbEntity
  8
COMBUSTION Reflector
100
AcDbLine
 10
10.32233370260739
 20
33.38176650569558
 30
0.0
 11
10.32233370260739
 21
46.63176650569556
 31
0.0
  0
LINE
  5
2FA8
330
2F96
100
AcDbEntity
  8
COMBUSTION Radiant Tubes
100
AcDbLine
 10
10.32233370260738
 20
38.01676650569551
 30
0.0
 11
10.32233370260739
 21
41.99676650569549
 31
0.0
  0
INSERT
  5
2FA9
330
2F96
100
AcDbEntity
  8
0
100
AcDbBlockReference
  2
4 in - 10 ft Tube-RR
 10
238.2514866427249
 20
-0.0000000000000639
 30
0.0
 41
-1.0
  0
INSERT
  5
2FAA
330
2F96
100
AcDbEntity
  8
0
100
AcDbBlockReference
  2
4 in V3 BURNER BOX
 10
-29.23272861243309
 20
-2.938726993716699
 30
0.0
  0
ENDBLK
  5
2FAE
330
2F96
100
AcDbEntity
  8
0
100
AcDbBlockEnd
  0
BLOCK
  5
2FF5
330
2FF2
100
AcDbEntity
  8
0
100
AcDbBlockBegin
  2
4 in - 20 ft Tube-RR
 70
     0
 10
0.0
 20
0.0
 30
0.0
  3
4 in - 20 ft Tube-RR
  1

  0
LINE
  5
2FF6
330
2FF2
100
AcDbEntity
  8
Center Lines
100
AcDbLine
 10
111.9291529401175
 20
40.00676650569547
 30
0.0
 11
-9.587724760467622
 21
40.00676650569551
 31
0.0
  0
LINE
  5
2FF7
330
2FF2
100
AcDbEntity
  8
Radiant Tubes
100
AcDbLine
 10
111.9291529401175
 20
38.01676650569551
 30
0.0
 11
-4.070847059882465
 21
38.0167665056955
 31
0.0
  0
INSERT
  5
2FF8
330
2FF2
100
AcDbEntity
  8
0
100
AcDbBlockReference
  2
layers
 10
0.8387486649539821
 20
-3.611935436597064
 30
0.0
  0
LINE
  5
2FF9
330
2FF2
100
AcDbEntity
  8
Reflector
100
AcDbLine
 10
111.9291529401175
 20
33.3817665056955
 30
0.0
 11
-8.070847059882467
 21
33.38176650569551
 31
0.0
  0
LINE
  5
2FFA
330
2FF2
100
AcDbEntity
  8
Reflector
100
AcDbLine
 10
111.9291529401175
 20
38.7567665056955
 30
0.0
 11
-8.070847059882467
 21
38.75676650569551
 31
0.0
  0
LINE
  5
2FFB
330
2FF2
100
AcDbEntity
  8
Reflector
100
AcDbLine
 10
111.9291529401175
 20
46.63176650569549
 30
0.0
 11
-8.070847059882467
 21
46.63176650569549
 31
0.0
  0
LINE
  5
2FFC
330
2FF2
100
AcDbEntity
  8
Reflector
100
AcDbLine
 10
-8.070847059882467
 20
33.38176650569551
 30
0.0
 11
-8.070847059882467
 21
46.63176650569549
 31
0.0
  0
LINE
  5
2FFD
330
2FF2
100
AcDbEntity
  8
Reflector
100
AcDbLine
 10
111.9291529401175
 20
41.25676650569547
 30
0.0
 11
-8.070847059882481
 21
41.25676650569551
 31
0.0
  0
LINE
  5
2FFE
330
2FF2
100
AcDbEntity
  8
Radiant Tubes
100
AcDbLine
 10
-4.155847059882461
 20
38.10176650569551
 30
0.0
 11
-8.070847059882467
 21
38.10176650569551
 31
0.0
  0
LINE
  5
2FFF
330
2FF2
100
AcDbEntity
  8
Radiant Tubes
100
AcDbLine
 10
-4.155847059882475
 20
41.91176650569551
 30
0.0
 11
-8.070847059882467
 21
41.91176650569551
 31
0.0
  0
LINE
  5
3000
330
2FF2
100
AcDbEntity
  8
Radiant Tubes
100
AcDbLine
 10
111.9291529401175
 20
41.99676650569549
 30
0.0
 11
-4.070847059882465
 21
41.99676650569549
 31
0.0
  0
LINE
  5
3001
330
2FF2
100
AcDbEntity
  8
Radiant Tubes
100
AcDbLine
 10
-4.070847059882465
 20
41.99676650569549
 30
0.0
 11
-4.070847059882465
 21
38.0167665056955
 31
0.0
  0
LINE
  5
3002
330
2FF2
100
AcDbEntity
  8
Radiant Tubes
100
AcDbLine
 10
-4.155847059882475
 20
41.91176650569551
 30
0.0
 11
-4.070847059882465
 21
41.99676650569549
 31
0.0
  0
LINE
  5
3003
330
2FF2
100
AcDbEntity
  8
Radiant Tubes
100
AcDbLine
 10
-4.155847059882475
 20
41.91176650569551
 30
0.0
 11
-4.155847059882461
 21
38.10176650569551
 31
0.0
  0
LINE
  5
3004
330
2FF2
100
AcDbEntity
  8
Radiant Tubes
100
AcDbLine
 10
-4.155847059882461
 20
38.10176650569551
 30
0.0
 11
-4.070847059882465
 21
38.0167665056955
 31
0.0
  0
LINE
  5
3005
330
2FF2
100
AcDbEntity
  8
Radiant Tubes
100
AcDbLine
 10
-8.070847059882467
 20
38.10176650569551
 30
0.0
 11
-8.070847059882467
 21
41.91176650569551
 31
0.0
  0
LINE
  5
3006
330
2FF2
100
AcDbEntity
  8
Center Lines
100
AcDbLine
 10
227.9291529401175
 20
40.00676650569547
 30
0.0
 11
106.4122752395324
 21
40.00676650569547
 31
0.0
  0
LINE
  5
3007
330
2FF2
100
AcDbEntity
  8
Reflector
100
AcDbLine
 10
227.9291529401175
 20
41.25676650569547
 30
0.0
 11
107.9291529401175
 21
41.25676650569547
 31
0.0
  0
LINE
  5
3008
330
2FF2
100
AcDbEntity
  8
Reflector
100
AcDbLine
 10
227.9291529401175
 20
38.75676650569547
 30
0.0
 11
107.9291529401175
 21
38.7567665056955
 31
0.0
  0
LINE
  5
3009
330
2FF2
100
AcDbEntity
  8
Reflector
100
AcDbLine
 10
227.9291529401175
 20
46.63176650569549
 30
0.0
 11
107.9291529401175
 21
46.63176650569549
 31
0.0
  0
LINE
  5
300A
330
2FF2
100
AcDbEntity
  8
Reflector
100
AcDbLine
 10
227.9291529401175
 20
33.38176650569548
 30
0.0
 11
107.9291529401175
 21
33.3817665056955
 31
0.0
  0
LINE
  5
300B
330
2FF2
100
AcDbEntity
  8
Radiant Tubes
100
AcDbLine
 10
227.9291529401175
 20
38.0167665056955
 30
0.0
 11
111.9291529401175
 21
38.01676650569549
 31
0.0
  0
LINE
  5
300C
330
2FF2
100
AcDbEntity
  8
Reflector
100
AcDbLine
 10
227.9291529401175
 20
33.38176650569555
 30
0.0
 11
227.9291529401175
 21
46.63176650569554
 31
0.0
  0
LINE
  5
300D
330
2FF2
100
AcDbEntity
  8
Radiant Tubes
100
AcDbLine
 10
111.8441529401175
 20
38.1017665056955
 30
0.0
 11
107.9291529401175
 21
38.1017665056955
 31
0.0
  0
LINE
  5
300E
330
2FF2
100
AcDbEntity
  8
Radiant Tubes
100
AcDbLine
 10
111.8441529401175
 20
41.91176650569548
 30
0.0
 11
107.9291529401175
 21
41.91176650569548
 31
0.0
  0
LINE
  5
300F
330
2FF2
100
AcDbEntity
  8
Radiant Tubes
100
AcDbLine
 10
227.9291529401175
 20
41.99676650569545
 30
0.0
 11
111.9291529401175
 21
41.99676650569549
 31
0.0
  0
LINE
  5
3010
330
2FF2
100
AcDbEntity
  8
Radiant Tubes
100
AcDbLine
 10
111.9291529401175
 20
41.99676650569549
 30
0.0
 11
111.9291529401175
 21
38.01676650569549
 31
0.0
  0
LINE
  5
3011
330
2FF2
100
AcDbEntity
  8
Radiant Tubes
100
AcDbLine
 10
111.8441529401175
 20
41.91176650569548
 30
0.0
 11
111.8441529401175
 21
38.1017665056955
 31
0.0
  0
LINE
  5
3012
330
2FF2
100
AcDbEntity
  8
Radiant Tubes
100
AcDbLine
 10
111.8441529401175
 20
41.91176650569548
 30
0.0
 11
111.9291529401175
 21
41.99676650569549
 31
0.0
  0
LINE
  5
3013
330
2FF2
100
AcDbEntity
  8
Radiant Tubes
100
AcDbLine
 10
111.8441529401175
 20
38.1017665056955
 30
0.0
 11
111.9291529401175
 21
38.01676650569549
 31
0.0
  0
LINE
  5
3014
330
2FF2
100
AcDbEntity
  8
Radiant Tubes
100
AcDbLine
 10
107.9291529401175
 20
38.1017665056955
 30
0.0
 11
107.9291529401175
 21
41.91176650569548
 31
0.0
  0
LINE
  5
3015
330
2FF2
100
AcDbEntity
  8
Radiant Tubes
100
AcDbLine
 10
111.9291529401175
 20
41.99676650569549
 30
0.0
 11
111.9291529401175
 21
38.01676650569551
 31
0.0
  0
LINE
  5
3016
330
2FF2
100
AcDbEntity
  8
Radiant Tubes
100
AcDbLine
 10
227.9291529401175
 20
38.0167665056955
 30
0.0
 11
227.9291529401175
 21
41.99676650569545
 31
0.0
  0
LINE
  5
3017
330
2FF2
100
AcDbEntity
  8
Reflector
100
AcDbLine
 10
107.9291529401175
 20
33.3817665056955
 30
0.0
 11
107.9291529401175
 21
46.63176650569549
 31
0.0
  0
LINE
  5
3018
330
2FF2
100
AcDbEntity
  8
Reflector
100
AcDbLine
 10
111.9291529401175
 20
33.3817665056955
 30
0.0
 11
111.9291529401175
 21
46.63176650569549
 31
0.0
  0
ENDBLK
  5
3019
330
2FF2
100
AcDbEntity
  8
0
100
AcDbBlockEnd
  0
BLOCK
  5
3031
330
301A
100
AcDbEntity
  8
0
100
AcDbBlockBegin
  2
4 in - 30 ft Assy
 70
     0
 10
0.0
 20
0.0
 30
0.0
  3
4 in - 30 ft Assy
  1

  0
LINE
  5
30C3
330
301A
100
AcDbEntity
  8
Center Lines
100
AcDbLine
 10
10.32233370260738
 20
40.00676650569548
 30
0.0
 11
131.8392114031925
 21
40.00676650569551
 31
0.0
  0
LINE
  5
30C4
330
301A
100
AcDbEntity
  8
COMBUSTION Radiant Tubes
100
AcDbLine
 10
10.32233370260738
 20
38.01676650569551
 30
0.0
 11
126.3223337026073
 21
38.0167665056955
 31
0.0
  0
INSERT
  5
30C5
330
301A
100
AcDbEntity
  8
0
100
AcDbBlockReference
  2
layers
 10
0.8387486649539821
 20
-3.611935436597064
 30
0.0
  0
LINE
  5
30C6
330
301A
100
AcDbEntity
  8
COMBUSTION Reflector
100
AcDbLine
 10
10.32233370260738
 20
33.3817665056955
 30
0.0
 11
130.3223337026073
 21
33.38176650569551
 31
0.0
  0
LINE
  5
30C7
330
301A
100
AcDbEntity
  8
COMBUSTION Reflector
100
AcDbLine
 10
10.32233370260739
 20
38.7567665056955
 30
0.0
 11
130.3223337026073
 21
38.75676650569551
 31
0.0
  0
LINE
  5
30C8
330
301A
100
AcDbEntity
  8
COMBUSTION Reflector
100
AcDbLine
 10
10.32233370260739
 20
46.6317665056955
 30
0.0
 11
130.3223337026073
 21
46.6317665056955
 31
0.0
  0
LINE
  5
30C9
330
301A
100
AcDbEntity
  8
COMBUSTION Reflector
100
AcDbLine
 10
130.3223337026073
 20
33.38176650569551
 30
0.0
 11
130.3223337026073
 21
46.6317665056955
 31
0.0
  0
LINE
  5
30CA
330
301A
100
AcDbEntity
  8
COMBUSTION Reflector
100
AcDbLine
 10
10.32233370260739
 20
41.25676650569548
 30
0.0
 11
130.3223337026073
 21
41.25676650569551
 31
0.0
  0
LINE
  5
30CB
330
301A
100
AcDbEntity
  8
COMBUSTION Radiant Tubes
100
AcDbLine
 10
126.4073337026073
 20
38.10176650569551
 30
0.0
 11
130.3223337026073
 21
38.10176650569551
 31
0.0
  0
LINE
  5
30CC
330
301A
100
AcDbEntity
  8
COMBUSTION Radiant Tubes
100
AcDbLine
 10
126.4073337026073
 20
41.91176650569551
 30
0.0
 11
130.3223337026073
 21
41.91176650569551
 31
0.0
  0
LINE
  5
30CD
330
301A
100
AcDbEntity
  8
COMBUSTION Radiant Tubes
100
AcDbLine
 10
10.32233370260738
 20
41.99676650569549
 30
0.0
 11
126.3223337026073
 21
41.99676650569549
 31
0.0
  0
LINE
  5
30CE
330
301A
100
AcDbEntity
  8
COMBUSTION Radiant Tubes
100
AcDbLine
 10
126.3223337026073
 20
41.99676650569549
 30
0.0
 11
126.3223337026073
 21
38.0167665056955
 31
0.0
  0
LINE
  5
30CF
330
301A
100
AcDbEntity
  8
COMBUSTION Radiant Tubes
100
AcDbLine
 10
126.4073337026073
 20
41.91176650569551
 30
0.0
 11
126.3223337026073
 21
41.99676650569549
 31
0.0
  0
LINE
  5
30D0
330
301A
100
AcDbEntity
  8
COMBUSTION Radiant Tubes
100
AcDbLine
 10
126.4073337026073
 20
41.91176650569551
 30
0.0
 11
126.4073337026073
 21
38.10176650569551
 31
0.0
  0
LINE
  5
30D1
330
301A
100
AcDbEntity
  8
COMBUSTION Radiant Tubes
100
AcDbLine
 10
126.4073337026073
 20
38.10176650569551
 30
0.0
 11
126.3223337026073
 21
38.0167665056955
 31
0.0
  0
LINE
  5
30D2
330
301A
100
AcDbEntity
  8
COMBUSTION Radiant Tubes
100
AcDbLine
 10
130.3223337026073
 20
38.10176650569551
 30
0.0
 11
130.3223337026073
 21
41.91176650569551
 31
0.0
  0
LINE
  5
30D3
330
301A
100
AcDbEntity
  8
COMBUSTION Reflector
100
AcDbLine
 10
10.32233370260739
 20
33.38176650569558
 30
0.0
 11
10.32233370260739
 21
46.63176650569556
 31
0.0
  0
LINE
  5
30D4
330
301A
100
AcDbEntity
  8
COMBUSTION Radiant Tubes
100
AcDbLine
 10
10.32233370260738
 20
38.01676650569551
 30
0.0
 11
10.32233370260739
 21
41.99676650569549
 31
0.0
  0
INSERT
  5
30D5
330
301A
100
AcDbEntity
  8
0
100
AcDbBlockReference
  2
4 in - 20 ft Tube-RR
 10
354.2514866427248
 20
0.0000000000000284
 30
0.0
 41
-1.0
  0
INSERT
  5
30D6
330
301A
100
AcDbEntity
  8
0
100
AcDbBlockReference
  2
4 in BURNER BOX
 10
-28.3405309384592
 20
0.0000000000000142
 30
0.0
  0
ENDBLK
  5
3032
330
301A
100
AcDbEntity
  8
0
100
AcDbBlockEnd
  0
BLOCK
  5
3071
330
306E
100
AcDbEntity
  8
0
100
AcDbBlockBegin
  2
BURNER BOX
 70
     0
 10
0.0
 20
0.0
 30
0.0
  3
BURNER BOX
  1

  0
LINE
  5
3072
330
306E
100
AcDbEntity
  8
Center Lines
100
AcDbLine
 10
13.87538097441444
 20
40.00676650569548
 30
0.0
 11
44.12351024700193
 21
40.00676650569547
 31
0.0
  0
LINE
  5
3073
330
306E
100
AcDbEntity
  8
BURNER Radiant Tubes
  6
Continuous
100
AcDbLine
 10
26.66286464106657
 20
38.01676650569551
 30
0.0
 11
31.16286464106658
 21
38.0167665056955
 31
0.0
  0
INSERT
  5
3074
330
306E
100
AcDbEntity
  8
0
100
AcDbBlockReference
  2
layers
 10
0.8387486649539821
 20
-3.611935436597064
 30
0.0
  0
LINE
  5
3075
330
306E
100
AcDbEntity
  8
BURNER Radiant Tubes
100
AcDbLine
 10
38.74786464106659
 20
38.1017665056955
 30
0.0
 11
42.66286464106658
 21
38.1017665056955
 31
0.0
  0
LINE
  5
3076
330
306E
100
AcDbEntity
  8
BURNER Radiant Tubes
100
AcDbLine
 10
38.74786464106661
 20
41.91176650569548
 30
0.0
 11
42.66286464106658
 21
41.91176650569548
 31
0.0
  0
LINE
  5
3077
330
306E
100
AcDbEntity
  8
BURNER Radiant Tubes
  6
Continuous
100
AcDbLine
 10
26.66286464106657
 20
41.99676650569549
 30
0.0
 11
38.66286464106659
 21
41.99676650569549
 31
0.0
  0
LINE
  5
3078
330
306E
100
AcDbEntity
  8
BURNER Radiant Tubes
  6
Continuous
100
AcDbLine
 10
38.66286464106659
 20
41.99676650569549
 30
0.0
 11
38.66286464106659
 21
38.01676650569549
 31
0.0
  0
LINE
  5
3079
330
306E
100
AcDbEntity
  8
BURNER Radiant Tubes
100
AcDbLine
 10
38.74786464106661
 20
41.91176650569548
 30
0.0
 11
38.66286464106659
 21
41.99676650569549
 31
0.0
  0
LINE
  5
307A
330
306E
100
AcDbEntity
  8
BURNER Radiant Tubes
100
AcDbLine
 10
38.74786464106661
 20
41.91176650569548
 30
0.0
 11
38.74786464106659
 21
38.1017665056955
 31
0.0
  0
LINE
  5
307B
330
306E
100
AcDbEntity
  8
BURNER Radiant Tubes
100
AcDbLine
 10
38.74786464106659
 20
38.1017665056955
 30
0.0
 11
38.66286464106659
 21
38.01676650569549
 31
0.0
  0
LINE
  5
307C
330
306E
100
AcDbEntity
  8
BURNER Radiant Tubes
100
AcDbLine
 10
42.66286464106658
 20
38.1017665056955
 30
0.0
 11
42.66286464106658
 21
41.91176650569548
 31
0.0
  0
LINE
  5
307D
330
306E
100
AcDbEntity
  8
Burners
100
AcDbLine
 10
26.66286464106657
 20
38.01676650569551
 30
0.0
 11
26.66286464106662
 21
52.26676650569549
 31
0.0
  0
LINE
  5
307E
330
306E
100
AcDbEntity
  8
Burners
100
AcDbLine
 10
31.16286464106657
 20
35.2567665056955
 30
0.0
 11
31.16286464106658
 21
40.0067665056955
 31
0.0
  0
LINE
  5
307F
330
306E
100
AcDbEntity
  8
Burners
100
AcDbLine
 10
35.16286464106656
 20
35.2567665056955
 30
0.0
 11
35.16286464106658
 21
40.0067665056955
 31
0.0
  0
LINE
  5
3080
330
306E
100
AcDbEntity
  8
Burners
100
AcDbLine
 10
31.16286464106658
 20
40.0067665056955
 30
0.0
 11
35.16286464106658
 21
40.0067665056955
 31
0.0
  0
LINE
  5
3081
330
306E
100
AcDbEntity
  8
BURNER Radiant Tubes
  6
Continuous
100
AcDbLine
 10
35.16286464106658
 20
38.01676650569549
 30
0.0
 11
38.66286464106659
 21
38.01676650569549
 31
0.0
  0
LINE
  5
3082
330
306E
100
AcDbEntity
  8
Burners
100
AcDbLine
 10
26.66286464106657
 20
36.26676650569551
 30
0.0
 11
31.16286464106657
 21
36.2667665056955
 31
0.0
  0
LINE
  5
3083
330
306E
100
AcDbEntity
  8
Burners
100
AcDbLine
 10
31.16286464106658
 20
35.2567665056955
 30
0.0
 11
35.16286464106658
 21
35.2567665056955
 31
0.0
  0
LINE
  5
3084
330
306E
100
AcDbEntity
  8
Burners
100
AcDbLine
 10
26.66286464106657
 20
35.51676650569551
 30
0.0
 11
31.16286464106657
 21
35.5167665056955
 31
0.0
  0
LINE
  5
3085
330
306E
100
AcDbEntity
  8
Burners
100
AcDbLine
 10
26.66286464106657
 20
34.26676650569551
 30
0.0
 11
15.41286464106655
 21
34.26676650569549
 31
0.0
  0
LINE
  5
3086
330
306E
100
AcDbEntity
  8
Burners
100
AcDbLine
 10
26.66286464106657
 20
34.26676650569551
 30
0.0
 11
26.66286464106657
 21
38.01676650569551
 31
0.0
  0
LINE
  5
3087
330
306E
100
AcDbEntity
  8
Burners
100
AcDbLine
 10
15.41286464106655
 20
34.26676650569553
 30
0.0
 11
15.41286464106656
 21
38.26676650569549
 31
0.0
  0
LINE
  5
3088
330
306E
100
AcDbEntity
  8
Burners
100
AcDbLine
 10
26.66286464106653
 20
52.26676650569551
 30
0.0
 11
15.41286464106653
 21
52.26676650569549
 31
0.0
  0
LINE
  5
3089
330
306E
100
AcDbEntity
  8
Burners
100
AcDbLine
 10
15.41286464106658
 20
48.26676650569549
 30
0.0
 11
13.41286464106658
 21
48.26676650569549
 31
0.0
  0
LINE
  5
308A
330
306E
100
AcDbEntity
  8
Burners
100
AcDbLine
 10
15.41286464106657
 20
44.26676650569549
 30
0.0
 11
13.41286464106657
 21
44.26676650569549
 31
0.0
  0
LINE
  5
308B
330
306E
100
AcDbEntity
  8
Burners
100
AcDbLine
 10
15.41286464106656
 20
38.26676650569549
 30
0.0
 11
13.41286464106656
 21
38.26676650569549
 31
0.0
  0
LINE
  5
308C
330
306E
100
AcDbEntity
  8
Burners
100
AcDbLine
 10
15.41286464106656
 20
39.26676650569549
 30
0.0
 11
13.41286464106656
 21
39.26676650569549
 31
0.0
  0
LINE
  5
308D
330
306E
100
AcDbEntity
  8
Burners
100
AcDbLine
 10
13.41286464106656
 20
38.26676650569549
 30
0.0
 11
13.41286464106656
 21
39.26676650569549
 31
0.0
  0
LINE
  5
308E
330
306E
100
AcDbEntity
  8
Burners
100
AcDbLine
 10
13.41286464106658
 20
44.26676650569549
 30
0.0
 11
13.41286464106658
 21
48.26676650569551
 31
0.0
  0
LINE
  5
308F
330
306E
100
AcDbEntity
  8
Burners
100
AcDbLine
 10
15.41286464106656
 20
39.26676650569549
 30
0.0
 11
15.41286464106658
 21
44.26676650569549
 31
0.0
  0
LINE
  5
3090
330
306E
100
AcDbEntity
  8
Burners
100
AcDbLine
 10
15.41286464106659
 20
48.26676650569551
 30
0.0
 11
15.41286464106659
 21
52.26676650569547
 31
0.0
  0
LINE
  5
3091
330
306E
100
AcDbEntity
  8
Burners
100
AcDbLine
 10
15.41286464106656
 20
39.26676650569549
 30
0.0
 11
15.41286464106656
 21
38.26676650569549
 31
0.0
  0
LINE
  5
3092
330
306E
100
AcDbEntity
  8
Burners
100
AcDbLine
 10
15.41286464106659
 20
48.26676650569549
 30
0.0
 11
15.4128646410666
 21
44.26676650569549
 31
0.0
  0
ENDBLK
  5
3093
330
306E
100
AcDbEntity
  8
0
100
AcDbBlockEnd
  0
BLOCK
  5
3097
330
3094
100
AcDbEntity
  8
0
100
AcDbBlockBegin
  2
4 in BURNER BOX
 70
     0
 10
0.0
 20
0.0
 30
0.0
  3
4 in BURNER BOX
  1

  0
LINE
  5
3098
330
3094
100
AcDbEntity
  8
Burner
  6
HIDDEN
 62
   253
100
AcDbLine
 10
26.66286464106657
 20
38.01676650569551
 30
0.0
 11
27.66286464106658
 21
38.01676650569551
 31
0.0
  0
INSERT
  5
3099
330
3094
100
AcDbEntity
  8
0
100
AcDbBlockReference
  2
layers
 10
0.8387486649539821
 20
-3.611935436597064
 30
0.0
  0
LINE
  5
309A
330
3094
100
AcDbEntity
  8
BURNER Radiant Tubes
100
AcDbLine
 10
38.74786464106659
 20
38.1017665056955
 30
0.0
 11
42.66286464106658
 21
38.1017665056955
 31
0.0
  0
LINE
  5
309B
330
3094
100
AcDbEntity
  8
BURNER Radiant Tubes
100
AcDbLine
 10
38.74786464106661
 20
41.91176650569548
 30
0.0
 11
42.66286464106658
 21
41.91176650569548
 31
0.0
  0
LINE
  5
309C
330
3094
100
AcDbEntity
  8
Burner
  6
HIDDEN
 62
   253
100
AcDbLine
 10
26.66286464106657
 20
41.99676650569549
 30
0.0
 11
27.66286464106658
 21
41.99676650569549
 31
0.0
  0
LINE
  5
309D
330
3094
100
AcDbEntity
  8
BURNER Radiant Tubes
  6
Continuous
100
AcDbLine
 10
38.66286464106659
 20
41.99676650569549
 30
0.0
 11
38.66286464106659
 21
38.01676650569549
 31
0.0
  0
LINE
  5
309E
330
3094
100
AcDbEntity
  8
BURNER Radiant Tubes
100
AcDbLine
 10
38.74786464106661
 20
41.91176650569548
 30
0.0
 11
38.66286464106659
 21
41.99676650569549
 31
0.0
  0
LINE
  5
309F
330
3094
100
AcDbEntity
  8
BURNER Radiant Tubes
100
AcDbLine
 10
38.74786464106661
 20
41.91176650569548
 30
0.0
 11
38.74786464106659
 21
38.1017665056955
 31
0.0
  0
LINE
  5
30A0
330
3094
100
AcDbEntity
  8
BURNER Radiant Tubes
100
AcDbLine
 10
38.74786464106659
 20
38.1017665056955
 30
0.0
 11
38.66286464106659
 21
38.01676650569549
 31
0.0
  0
LINE
  5
30A1
330
3094
100
AcDbEntity
  8
BURNER Radiant Tubes
100
AcDbLine
 10
42.66286464106658
 20
38.1017665056955
 30
0.0
 11
42.66286464106658
 21
41.91176650569548
 31
0.0
  0
LINE
  5
30A2
330
3094
100
AcDbEntity
  8
Burner
  6
HIDDEN
 62
   253
100
AcDbLine
 10
26.66286464106657
 20
35.00676650569552
 30
0.0
 11
26.66286464106662
 21
53.00676650569547
 31
0.0
  0
LINE
  5
30A3
330
3094
100
AcDbEntity
  8
Burner
100
AcDbLine
 10
31.16286464106657
 20
35.2567665056955
 30
0.0
 11
31.16286464106658
 21
40.0067665056955
 31
0.0
  0
LINE
  5
30A4
330
3094
100
AcDbEntity
  8
Burner
100
AcDbLine
 10
35.16286464106656
 20
35.2567665056955
 30
0.0
 11
35.16286464106658
 21
40.0067665056955
 31
0.0
  0
LINE
  5
30A5
330
3094
100
AcDbEntity
  8
Burner
100
AcDbLine
 10
31.16286464106658
 20
40.0067665056955
 30
0.0
 11
35.16286464106658
 21
40.0067665056955
 31
0.0
  0
LINE
  5
30A6
330
3094
100
AcDbEntity
  8
BURNER Radiant Tubes
  6
Continuous
100
AcDbLine
 10
35.16286464106658
 20
38.01676650569549
 30
0.0
 11
38.66286464106659
 21
38.01676650569549
 31
0.0
  0
LINE
  5
30A7
330
3094
100
AcDbEntity
  8
Burner
  6
HIDDEN
 62
   253
100
AcDbLine
 10
26.66286464106657
 20
36.26676650569551
 30
0.0
 11
27.66286464106658
 21
36.26676650569552
 31
0.0
  0
LINE
  5
30A8
330
3094
100
AcDbEntity
  8
Burner
100
AcDbLine
 10
31.16286464106658
 20
35.2567665056955
 30
0.0
 11
35.16286464106658
 21
35.2567665056955
 31
0.0
  0
LINE
  5
30A9
330
3094
100
AcDbEntity
  8
Burner
  6
HIDDEN
 62
   253
100
AcDbLine
 10
26.66286464106657
 20
35.51676650569551
 30
0.0
 11
27.66286464106657
 21
35.51676650569551
 31
0.0
  0
LINE
  5
30AA
330
3094
100
AcDbEntity
  8
Burner
100
AcDbLine
 10
27.66286464106658
 20
35.00676650569552
 30
0.0
 11
15.66286464106655
 21
35.00676650569551
 31
0.0
  0
LINE
  5
30AB
330
3094
100
AcDbEntity
  8
Burner
100
AcDbLine
 10
27.66286464106662
 20
53.00676650569549
 30
0.0
 11
15.66286464106662
 21
53.00676650569547
 31
0.0
  0
LINE
  5
30AC
330
3094
100
AcDbEntity
  8
Burner
  6
HIDDEN
 62
   253
100
AcDbLine
 10
16.6628646410666
 20
49.50676650569548
 30
0.0
 11
15.6628646410666
 21
49.50676650569549
 31
0.0
  0
LINE
  5
30AD
330
3094
100
AcDbEntity
  8
Burner
  6
HIDDEN
 62
   253
100
AcDbLine
 10
16.6628646410666
 20
45.50676650569547
 30
0.0
 11
15.66286464106659
 21
45.50676650569547
 31
0.0
  0
LINE
  5
30AE
330
3094
100
AcDbEntity
  8
Burner
  6
HIDDEN
 62
   253
100
AcDbLine
 10
16.66286464106656
 20
39.5067665056955
 30
0.0
 11
15.66286464106657
 21
39.5067665056955
 31
0.0
  0
LINE
  5
30AF
330
3094
100
AcDbEntity
  8
Burner
  6
HIDDEN
 62
   253
100
AcDbLine
 10
16.66286464106657
 20
40.5067665056955
 30
0.0
 11
15.66286464106657
 21
40.50676650569548
 31
0.0
  0
LINE
  5
30B0
330
3094
100
AcDbEntity
  8
Burner
100
AcDbLine
 10
14.66286464106656
 20
39.5067665056955
 30
0.0
 11
14.66286464106656
 21
40.5067665056955
 31
0.0
  0
LINE
  5
30B1
330
3094
100
AcDbEntity
  8
Burner
100
AcDbLine
 10
14.6628646410666
 20
45.50676650569547
 30
0.0
 11
14.66286464106661
 21
49.50676650569549
 31
0.0
  0
LINE
  5
30B2
330
3094
100
AcDbEntity
  8
Burner
  6
HIDDEN
 62
   253
100
AcDbLine
 10
16.66286464106652
 20
35.00676650569551
 30
0.0
 11
16.66286464106662
 21
53.00676650569553
 31
0.0
  0
LINE
  5
30B3
330
3094
100
AcDbEntity
  8
Center Lines
100
AcDbLine
 10
46.07351793846427
 20
40.00676650569548
 30
0.0
 11
12.16283504057107
 21
40.00676650569548
 31
0.0
  0
LINE
  5
30B4
330
3094
100
AcDbEntity
  8
Burner
100
AcDbLine
 10
15.66286464106655
 20
35.00676650569551
 30
0.0
 11
15.66286464106662
 21
53.00676650569553
 31
0.0
  0
LINE
  5
30B5
330
3094
100
AcDbEntity
  8
Burner
100
AcDbLine
 10
27.66286464106657
 20
35.00676650569552
 30
0.0
 11
27.66286464106662
 21
53.00676650569546
 31
0.0
  0
LINE
  5
30B6
330
3094
100
AcDbEntity
  8
Burner
100
AcDbLine
 10
15.66286464106657
 20
40.5067665056955
 30
0.0
 11
14.66286464106657
 21
40.5067665056955
 31
0.0
  0
LINE
  5
30B7
330
3094
100
AcDbEntity
  8
Burner
100
AcDbLine
 10
15.66286464106657
 20
39.5067665056955
 30
0.0
 11
14.66286464106656
 21
39.5067665056955
 31
0.0
  0
LINE
  5
30B8
330
3094
100
AcDbEntity
  8
Burner
100
AcDbLine
 10
15.66286464106659
 20
45.50676650569547
 30
0.0
 11
14.6628646410666
 21
45.50676650569547
 31
0.0
  0
LINE
  5
30B9
330
3094
100
AcDbEntity
  8
Burner
100
AcDbLine
 10
15.6628646410666
 20
49.50676650569548
 30
0.0
 11
14.6628646410666
 21
49.50676650569548
 31
0.0
  0
LINE
  5
30BA
330
3094
100
AcDbEntity
  8
BURNER Radiant Tubes
  6
Continuous
100
AcDbLine
 10
27.66286464106659
 20
41.99676650569549
 30
0.0
 11
38.66286464106659
 21
41.99676650569549
 31
0.0
  0
LINE
  5
30BB
330
3094
100
AcDbEntity
  8
BURNER Radiant Tubes
  6
Continuous
100
AcDbLine
 10
27.66286464106658
 20
38.01676650569551
 30
0.0
 11
31.16286464106658
 21
38.0167665056955
 31
0.0
  0
LINE
  5
30BC
330
3094
100
AcDbEntity
  8
Burner
100
AcDbLine
 10
27.66286464106658
 20
36.26676650569552
 30
0.0
 11
31.16286464106657
 21
36.2667665056955
 31
0.0
  0
LINE
  5
30BD
330
3094
100
AcDbEntity
  8
Burner
100
AcDbLine
 10
27.66286464106657
 20
35.51676650569551
 30
0.0
 11
31.16286464106657
 21
35.5167665056955
 31
0.0
  0
ENDBLK
  5
30BE
330
3094
100
AcDbEntity
  8
0
100
AcDbBlockEnd
  0
BLOCK
  5
32B0
330
3110
100
AcDbEntity
  8
0
100
AcDbBlockBegin
  2
SV_4 in - 30 ft Assy
 70
     0
 10
0.0
 20
0.0
 30
0.0
  3
SV_4 in - 30 ft Assy
  1

  0
LINE
  5
3111
330
3110
100
AcDbEntity
  8
Center Lines
100
AcDbLine
 10
10.32233370260738
 20
40.00676650569549
 30
0.0
 11
131.8392114031925
 21
40.00676650569551
 31
0.0
  0
LINE
  5
3112
330
3110
100
AcDbEntity
  8
COMBUSTION Radiant Tubes
100
AcDbLine
 10
10.32233370260738
 20
38.01676650569551
 30
0.0
 11
126.3223337026073
 21
38.0167665056955
 31
0.0
  0
INSERT
  5
3113
330
3110
100
AcDbEntity
  8
0
100
AcDbBlockReference
  2
layers
 10
0.8387486649539823
 20
-3.611935436597065
 30
0.0
  0
LINE
  5
3114
330
3110
100
AcDbEntity
  8
COMBUSTION Reflector
100
AcDbLine
 10
10.32233370260738
 20
33.3817665056955
 30
0.0
 11
130.3223337026073
 21
33.38176650569551
 31
0.0
  0
LINE
  5
3115
330
3110
100
AcDbEntity
  8
COMBUSTION Reflector
100
AcDbLine
 10
10.32233370260739
 20
38.7567665056955
 30
0.0
 11
130.3223337026073
 21
38.75676650569551
 31
0.0
  0
LINE
  5
3116
330
3110
100
AcDbEntity
  8
COMBUSTION Reflector
100
AcDbLine
 10
10.32233370260739
 20
46.63176650569551
 30
0.0
 11
130.3223337026073
 21
46.63176650569551
 31
0.0
  0
LINE
  5
3117
330
3110
100
AcDbEntity
  8
COMBUSTION Reflector
100
AcDbLine
 10
130.3223337026073
 20
33.38176650569551
 30
0.0
 11
130.3223337026073
 21
46.63176650569551
 31
0.0
  0
LINE
  5
3118
330
3110
100
AcDbEntity
  8
COMBUSTION Reflector
100
AcDbLine
 10
10.32233370260739
 20
41.25676650569549
 30
0.0
 11
130.3223337026073
 21
41.25676650569551
 31
0.0
  0
LINE
  5
3119
330
3110
100
AcDbEntity
  8
COMBUSTION Radiant Tubes
100
AcDbLine
 10
126.4073337026073
 20
38.10176650569551
 30
0.0
 11
130.3223337026073
 21
38.10176650569551
 31
0.0
  0
LINE
  5
311A
330
3110
100
AcDbEntity
  8
COMBUSTION Radiant Tubes
100
AcDbLine
 10
126.4073337026073
 20
41.91176650569551
 30
0.0
 11
130.3223337026073
 21
41.91176650569551
 31
0.0
  0
LINE
  5
311B
330
3110
100
AcDbEntity
  8
COMBUSTION Radiant Tubes
100
AcDbLine
 10
10.32233370260738
 20
41.99676650569549
 30
0.0
 11
126.3223337026073
 21
41.9967665056955
 31
0.0
  0
LINE
  5
311C
330
3110
100
AcDbEntity
  8
COMBUSTION Radiant Tubes
100
AcDbLine
 10
126.3223337026073
 20
41.9967665056955
 30
0.0
 11
126.3223337026073
 21
38.0167665056955
 31
0.0
  0
LINE
  5
311D
330
3110
100
AcDbEntity
  8
COMBUSTION Radiant Tubes
100
AcDbLine
 10
126.4073337026073
 20
41.91176650569551
 30
0.0
 11
126.3223337026073
 21
41.9967665056955
 31
0.0
  0
LINE
  5
311E
330
3110
100
AcDbEntity
  8
COMBUSTION Radiant Tubes
100
AcDbLine
 10
126.4073337026073
 20
41.91176650569551
 30
0.0
 11
126.4073337026073
 21
38.10176650569551
 31
0.0
  0
LINE
  5
311F
330
3110
100
AcDbEntity
  8
COMBUSTION Radiant Tubes
100
AcDbLine
 10
126.4073337026073
 20
38.10176650569551
 30
0.0
 11
126.3223337026073
 21
38.0167665056955
 31
0.0
  0
LINE
  5
3120
330
3110
100
AcDbEntity
  8
COMBUSTION Radiant Tubes
100
AcDbLine
 10
130.3223337026073
 20
38.10176650569551
 30
0.0
 11
130.3223337026073
 21
41.91176650569551
 31
0.0
  0
LINE
  5
3121
330
3110
100
AcDbEntity
  8
COMBUSTION Reflector
100
AcDbLine
 10
10.32233370260739
 20
33.38176650569557
 30
0.0
 11
10.32233370260739
 21
46.63176650569556
 31
0.0
  0
LINE
  5
3122
330
3110
100
AcDbEntity
  8
COMBUSTION Radiant Tubes
100
AcDbLine
 10
10.32233370260738
 20
38.01676650569551
 30
0.0
 11
10.32233370260739
 21
41.99676650569549
 31
0.0
  0
INSERT
  5
3123
330
3110
100
AcDbEntity
  8
0
100
AcDbBlockReference
  2
4 in - 20 ft Tube-RR
 10
354.2514866427249
 20
0.0000000000000284
 30
0.0
 41
-1.0
  0
INSERT
  5
3124
330
3110
100
AcDbEntity
  8
0
100
AcDbBlockReference
  2
4 in BURNER BOX
 10
-28.3405309384592
 20
0.0000000000000142
 30
0.0
  0
LINE
  5
3125
330
3110
100
AcDbEntity
  8
0
100
AcDbLine
 10
366.5523337026074
 20
37.00676650569553
 30
0.0
 11
366.5523337026074
 21
43.00676650569553
 31
0.0
  0
LINE
  5
3126
330
3110
100
AcDbEntity
  8
0
100
AcDbLine
 10
366.6123337026074
 20
37.00676650569553
 30
0.0
 11
366.6123337026074
 21
43.00676650569553
 31
0.0
  0
LINE
  5
3127
330
3110
100
AcDbEntity
  8
0
100
AcDbLine
 10
366.4723337026073
 20
37.00676650569553
 30
0.0
 11
366.4723337026073
 21
43.00676650569553
 31
0.0
  0
LINE
  5
3128
330
3110
100
AcDbEntity
  8
0
100
AcDbLine
 10
366.0223337026074
 20
37.93076650569553
 30
0.0
 11
366.0223337026074
 21
42.08276650569553
 31
0.0
  0
LINE
  5
3129
330
3110
100
AcDbEntity
  8
0
  6
HIDDEN
100
AcDbLine
 10
358.3223337026073
 20
41.99676650569553
 30
0.0
 11
362.3223337026074
 21
41.99676650569553
 31
0.0
  0
LINE
  5
312A
330
3110
100
AcDbEntity
  8
0
100
AcDbLine
 10
362.3223337026074
 20
41.99676650569553
 30
0.0
 11
366.0223337026074
 21
41.99676650569553
 31
0.0
  0
LINE
  5
312B
330
3110
100
AcDbEntity
  8
0
  6
HIDDEN
100
AcDbLine
 10
358.3223337026073
 20
38.01676650569552
 30
0.0
 11
362.3223337026074
 21
38.01676650569552
 31
0.0
  0
LINE
  5
312C
330
3110
100
AcDbEntity
  8
0
100
AcDbLine
 10
362.3223337026074
 20
38.01676650569552
 30
0.0
 11
366.0223337026074
 21
38.01676650569552
 31
0.0
  0
LINE
  5
312D
330
3110
100
AcDbEntity
  8
0
100
AcDbLine
 10
366.4723337026074
 20
37.00676650569553
 30
0.0
 11
366.6123337026074
 21
37.00676650569554
 31
0.0
  0
LINE
  5
312E
330
3110
100
AcDbEntity
  8
0
100
AcDbLine
 10
366.4723337026074
 20
43.00676650569553
 30
0.0
 11
366.6123337026074
 21
43.00676650569553
 31
0.0
  0
LINE
  5
312F
330
3110
100
AcDbEntity
  8
0
100
AcDbLine
 10
366.0223337026074
 20
37.93076650569553
 30
0.0
 11
366.4723337026074
 21
37.93076650569553
 31
0.0
  0
LINE
  5
3130
330
3110
100
AcDbEntity
  8
0
100
AcDbLine
 10
366.0223337026074
 20
42.08276650569553
 30
0.0
 11
366.4723337026074
 21
42.08276650569552
 31
0.0
  0
LINE
  5
3131
330
3110
100
AcDbEntity
  8
0
100
AcDbLine
 10
368.3567337026074
 20
40.36876650569554
 30
0.0
 11
368.3567337026074
 21
40.12456650569553
 31
0.0
  0
LINE
  5
3132
330
3110
100
AcDbEntity
  8
0
100
AcDbLine
 10
366.5233337026074
 20
41.15509801289423
 30
0.0
 11
366.5233337026074
 21
36.74876650569554
 31
0.0
  0
LINE
  5
3133
330
3110
100
AcDbEntity
  8
0
100
AcDbLine
 10
369.2421337026074
 20
39.56876650569553
 30
0.0
 11
368.9571337026074
 21
39.56876650569553
 31
0.0
  0
LINE
  5
3134
330
3110
100
AcDbEntity
  8
0
100
AcDbLine
 10
366.9433337026073
 20
36.73876650569555
 30
0.0
 11
366.9433337026073
 21
36.68876650569553
 31
0.0
  0
LINE
  5
3135
330
3110
100
AcDbEntity
  8
0
100
AcDbLine
 10
366.9433337026073
 20
41.0032920076925
 30
0.0
 11
366.9433337026073
 21
36.73876650569555
 31
0.0
  0
LINE
  5
3136
330
3110
100
AcDbEntity
  8
0
100
AcDbLine
 10
368.2733337026074
 20
41.1551972406821
 30
0.0
 11
368.2733337026074
 21
36.74876650569554
 31
0.0
  0
LINE
  5
3137
330
3110
100
AcDbEntity
  8
0
100
AcDbLine
 10
367.8533337026073
 20
36.73876650569555
 30
0.0
 11
367.8533337026073
 21
36.68876650569553
 31
0.0
  0
LINE
  5
3138
330
3110
100
AcDbEntity
  8
0
100
AcDbLine
 10
368.3567337026074
 20
39.81276650569553
 30
0.0
 11
368.3567337026074
 21
39.56876650569553
 31
0.0
  0
LINE
  5
3139
330
3110
100
AcDbEntity
  8
0
100
AcDbLine
 10
368.6865337026073
 20
40.36876650569554
 30
0.0
 11
368.3567337026074
 21
40.36876650569554
 31
0.0
  0
LINE
  5
313A
330
3110
100
AcDbEntity
  8
0
100
AcDbLine
 10
369.2289337026074
 20
40.36876650569554
 30
0.0
 11
368.9475337026073
 21
40.36876650569554
 31
0.0
  0
LINE
  5
313B
330
3110
100
AcDbEntity
  8
0
100
AcDbLine
 10
368.6865337026073
 20
39.56876650569553
 30
0.0
 11
368.3567337026074
 21
39.56876650569553
 31
0.0
  0
LINE
  5
313C
330
3110
100
AcDbEntity
  8
0
100
AcDbLine
 10
369.3895337026074
 20
40.29236650569553
 30
0.0
 11
368.9181337026074
 21
40.51656650569553
 31
0.0
  0
LINE
  5
313D
330
3110
100
AcDbEntity
  8
0
100
AcDbLine
 10
369.3895337026074
 20
40.36876650569554
 30
0.0
 11
368.9181337026074
 21
40.59296650569553
 31
0.0
  0
ELLIPSE
  5
313E
330
3110
100
AcDbEntity
  8
0
100
AcDbEllipse
 10
368.2885678186074
 20
39.73257351529555
 30
0.0
 11
0.0
 21
-0.020000000000009
 31
0.0
210
0.0
220
0.0
230
1.0
 40
0.7651191327
 41
4.712388980384689
 42
6.283185307179585
  0
LINE
  5
313F
330
3110
100
AcDbEntity
  8
0
100
AcDbLine
 10
366.4733337026074
 20
41.18079741721897
 30
0.0
 11
366.4733337026074
 21
36.62876650569553
 31
0.0
  0
LINE
  5
3140
330
3110
100
AcDbEntity
  8
0
100
AcDbLine
 10
369.3895337026074
 20
39.63876650569555
 30
0.0
 11
368.9181337026074
 21
39.41456650569552
 31
0.0
  0
LINE
  5
3141
330
3110
100
AcDbEntity
  8
0
100
AcDbLine
 10
369.3895337026074
 20
39.44616650569555
 30
0.0
 11
368.9181337026074
 21
39.22196650569553
 31
0.0
  0
LINE
  5
3142
330
3110
100
AcDbEntity
  8
0
100
AcDbLine
 10
369.3895337026074
 20
39.56236650569554
 30
0.0
 11
368.9181337026074
 21
39.33816650569555
 31
0.0
  0
LINE
  5
3143
330
3110
100
AcDbEntity
  8
0
100
AcDbLine
 10
366.4733337026074
 20
36.62876650569553
 30
0.0
 11
366.5233337026074
 21
36.62876650569553
 31
0.0
  0
LINE
  5
3144
330
3110
100
AcDbEntity
  8
0
100
AcDbLine
 10
366.5233337026074
 20
36.74876650569554
 30
0.0
 11
366.5233337026074
 21
36.62876650569553
 31
0.0
  0
LINE
  5
3145
330
3110
100
AcDbEntity
  8
0
100
AcDbLine
 10
367.8533337026073
 20
41.00333951609242
 30
0.0
 11
367.8533337026073
 21
36.73876650569555
 31
0.0
  0
LINE
  5
3146
330
3110
100
AcDbEntity
  8
0
100
AcDbLine
 10
368.3567337026074
 20
38.44236650569554
 30
0.0
 11
368.2885337026074
 21
38.44236650569554
 31
0.0
  0
ELLIPSE
  5
3147
330
3110
100
AcDbEntity
  8
0
100
AcDbEllipse
 10
368.4025878056074
 20
38.61674677689553
 30
0.0
 11
0.0
 21
0.0599999999999966
 31
0.0
210
0.0
220
0.0
230
1.0
 40
0.7651191327
 41
0.3490658503988879
 42
1.570796326794896
  0
LINE
  5
3148
330
3110
100
AcDbEntity
  8
0
100
AcDbLine
 10
368.6865337026073
 20
38.57636650569553
 30
0.0
 11
368.6865337026073
 21
39.96876650569554
 31
0.0
  0
LINE
  5
3149
330
3110
100
AcDbEntity
  8
0
100
AcDbLine
 10
368.3869337026074
 20
38.67316650569553
 30
0.0
 11
368.6865337026073
 21
38.81556650569553
 31
0.0
  0
LINE
  5
314A
330
3110
100
AcDbEntity
  8
0
100
AcDbLine
 10
368.6901337026073
 20
38.29396650569553
 30
0.0
 11
368.5547337026073
 21
38.29396650569553
 31
0.0
  0
LINE
  5
314B
330
3110
100
AcDbEntity
  8
0
100
AcDbLine
 10
368.7845337026074
 20
38.57636650569553
 30
0.0
 11
368.6865337026073
 21
38.57636650569553
 31
0.0
  0
LINE
  5
314C
330
3110
100
AcDbEntity
  8
0
100
AcDbLine
 10
368.7845337026074
 20
38.57636650569553
 30
0.0
 11
368.7845337026074
 21
39.96876650569554
 31
0.0
  0
LINE
  5
314D
330
3110
100
AcDbEntity
  8
0
100
AcDbLine
 10
368.8793337026074
 20
38.09216650569554
 30
0.0
 11
368.8793337026074
 21
38.28036650569553
 31
0.0
  0
LINE
  5
314E
330
3110
100
AcDbEntity
  8
0
100
AcDbLine
 10
368.9181337026074
 20
38.72876650569553
 30
0.0
 11
368.7845337026074
 21
38.57636650569553
 31
0.0
  0
LINE
  5
314F
330
3110
100
AcDbEntity
  8
0
100
AcDbLine
 10
368.9181337026074
 20
38.72876650569553
 30
0.0
 11
368.9181337026074
 21
39.96876650569554
 31
0.0
  0
LINE
  5
3150
330
3110
100
AcDbEntity
  8
0
100
AcDbLine
 10
368.9181337026074
 20
38.92596650569553
 30
0.0
 11
369.3895337026074
 21
39.15016650569553
 31
0.0
  0
LINE
  5
3151
330
3110
100
AcDbEntity
  8
0
100
AcDbLine
 10
368.7601337026074
 20
38.53716650569553
 30
0.0
 11
369.3895337026074
 21
38.83656650569555
 31
0.0
  0
LINE
  5
3152
330
3110
100
AcDbEntity
  8
0
100
AcDbLine
 10
369.3895337026074
 20
38.33176650569554
 30
0.0
 11
369.3895337026074
 21
39.96876650569554
 31
0.0
  0
ELLIPSE
  5
3153
330
3110
100
AcDbEntity
  8
0
100
AcDbEllipse
 10
369.4048165440074
 20
38.33173431069555
 30
0.0
 11
0.0
 21
-0.0199999999999938
 31
0.0
210
0.0
220
0.0
230
0.9999999999999998
 40
0.7651191327
 41
4.712388980384689
 42
6.283185307179585
  0
LINE
  5
3154
330
3110
100
AcDbEntity
  8
0
100
AcDbLine
 10
369.3895337026074
 20
38.37136650569554
 30
0.0
 11
369.4663337026073
 21
38.37136650569554
 31
0.0
  0
LINE
  5
3155
330
3110
100
AcDbEntity
  8
0
100
AcDbLine
 10
369.4663337026073
 20
38.31176650569555
 30
0.0
 11
369.4663337026073
 21
39.96876650569554
 31
0.0
  0
LINE
  5
3156
330
3110
100
AcDbEntity
  8
0
100
AcDbLine
 10
369.4047337026074
 20
38.31176650569555
 30
0.0
 11
369.4663337026073
 21
38.31176650569555
 31
0.0
  0
LINE
  5
3157
330
3110
100
AcDbEntity
  8
0
100
AcDbLine
 10
369.4663337026073
 20
38.50196650569553
 30
0.0
 11
369.3895337026074
 21
38.50196650569553
 31
0.0
  0
LINE
  5
3158
330
3110
100
AcDbEntity
  8
0
100
AcDbLine
 10
369.4663337026073
 20
38.77776650569553
 30
0.0
 11
369.3895337026074
 21
38.77776650569553
 31
0.0
  0
LINE
  5
3159
330
3110
100
AcDbEntity
  8
0
100
AcDbLine
 10
369.2303337026074
 20
39.81276650569553
 30
0.0
 11
369.3895337026074
 21
39.81276650569553
 31
0.0
  0
LINE
  5
315A
330
3110
100
AcDbEntity
  8
0
100
AcDbLine
 10
368.3567337026074
 20
39.71256650569553
 30
0.0
 11
368.2885337026074
 21
39.71256650569553
 31
0.0
  0
LINE
  5
315B
330
3110
100
AcDbEntity
  8
0
100
AcDbLine
 10
368.9181337026074
 20
41.20876650569554
 30
0.0
 11
368.9181337026074
 21
39.96876650569554
 31
0.0
  0
LINE
  5
315C
330
3110
100
AcDbEntity
  8
0
100
AcDbLine
 10
368.6865337026073
 20
41.36116650569554
 30
0.0
 11
368.6865337026073
 21
39.96876650569554
 31
0.0
  0
LINE
  5
315D
330
3110
100
AcDbEntity
  8
0
100
AcDbLine
 10
368.7845337026074
 20
41.36116650569554
 30
0.0
 11
368.7845337026074
 21
39.96876650569554
 31
0.0
  0
LINE
  5
315E
330
3110
100
AcDbEntity
  8
0
100
AcDbLine
 10
368.3567337026074
 20
40.22496650569554
 30
0.0
 11
368.2885337026074
 21
40.22496650569554
 31
0.0
  0
ELLIPSE
  5
315F
330
3110
100
AcDbEntity
  8
0
100
AcDbEllipse
 10
368.2885678186074
 20
40.20492620469554
 30
0.0
 11
0.0
 21
0.0200000000000068
 31
0.0
210
0.0
220
0.0
230
0.9999999999999998
 40
0.7651191327
 41
0.0
 42
1.570796326794896
  0
LINE
  5
3160
330
3110
100
AcDbEntity
  8
0
100
AcDbLine
 10
368.2733337026074
 20
40.12456650569553
 30
0.0
 11
368.5451337026074
 21
40.12456650569553
 31
0.0
  0
LINE
  5
3161
330
3110
100
AcDbEntity
  8
0
100
AcDbLine
 10
369.2577337026074
 20
40.12456650569553
 30
0.0
 11
369.3895337026074
 21
40.12456650569553
 31
0.0
  0
LINE
  5
3162
330
3110
100
AcDbEntity
  8
0
100
AcDbLine
 10
368.2733337026074
 20
40.20496650569553
 30
0.0
 11
368.2733337026074
 21
39.96876650569554
 31
0.0
  0
LINE
  5
3163
330
3110
100
AcDbEntity
  8
0
100
AcDbLine
 10
368.7845337026074
 20
41.36116650569554
 30
0.0
 11
368.6865337026073
 21
41.36116650569554
 31
0.0
  0
LINE
  5
3164
330
3110
100
AcDbEntity
  8
0
100
AcDbLine
 10
368.2733337026074
 20
39.81276650569553
 30
0.0
 11
368.5451337026074
 21
39.81276650569553
 31
0.0
  0
LINE
  5
3165
330
3110
100
AcDbEntity
  8
0
100
AcDbLine
 10
368.9181337026074
 20
41.20876650569554
 30
0.0
 11
368.7845337026074
 21
41.36116650569554
 31
0.0
  0
LINE
  5
3166
330
3110
100
AcDbEntity
  8
0
100
AcDbLine
 10
368.2733337026074
 20
39.73256650569554
 30
0.0
 11
368.2733337026074
 21
39.96876650569554
 31
0.0
  0
SPLINE
  5
3167
330
3110
100
AcDbEntity
  8
0
100
AcDbSpline
210
0.0
220
0.0
230
1.0
 70
    12
 71
     3
 72
    11
 73
     7
 74
     0
 42
0.0000000001
 43
0.0000000001
 40
0.0
 40
0.0
 40
0.0
 40
0.0
 40
0.2464040509641189
 40
0.2464040509641189
 40
0.2464040509641189
 40
1.0
 40
1.0
 40
1.0
 40
1.0
 10
368.6865337026073
 20
41.06396650569553
 30
0.0
 41
1.0
 10
368.6823337026074
 20
41.07036650569552
 30
0.0
 41
1.0
 10
368.6783337026073
 20
41.07676650569554
 30
0.0
 41
1.0
 10
368.6741337026074
 20
41.08336650569553
 30
0.0
 41
1.0
 10
368.6613337026074
 20
41.10356650569555
 30
0.0
 41
1.0
 10
368.6481337026074
 20
41.12476650569553
 30
0.0
 41
1.0
 10
368.6341337026074
 20
41.14676650569553
 30
0.0
 41
1.0
  0
ARC
  5
3168
330
3110
100
AcDbEntity
  8
0
100
AcDbCircle
 10
369.4605095402073
 20
41.16175613229553
 30
0.0
 40
0.1034998366
100
AcDbArc
 50
265.8381345253985
 51
94.16186508099784
  0
LINE
  5
3169
330
3110
100
AcDbEntity
  8
0
100
AcDbLine
 10
370.5363337026074
 20
39.03856650569555
 30
0.0
 11
370.2655337026074
 21
39.03856650569555
 31
0.0
  0
LINE
  5
316A
330
3110
100
AcDbEntity
  8
0
100
AcDbLine
 10
370.5363337026074
 20
39.03856650569555
 30
0.0
 11
370.8069337026074
 21
39.03856650569555
 31
0.0
  0
LINE
  5
316B
330
3110
100
AcDbEntity
  8
0
100
AcDbLine
 10
370.2655337026074
 20
39.03856650569555
 30
0.0
 11
370.2655337026074
 21
38.31176650569555
 31
0.0
  0
LINE
  5
316C
330
3110
100
AcDbEntity
  8
0
100
AcDbLine
 10
370.8069337026074
 20
39.03856650569555
 30
0.0
 11
370.8069337026074
 21
38.31176650569555
 31
0.0
  0
ARC
  5
316D
330
3110
100
AcDbEntity
  8
0
100
AcDbCircle
 10
368.5835277952074
 20
38.34787165889555
 30
0.0
 40
0.0610583334
100
AcDbArc
 50
216.3288433068009
 51
241.9275127511994
  0
ARC
  5
316E
330
3110
100
AcDbEntity
  8
0
100
AcDbCircle
 10
368.6614111286074
 20
38.34787165889555
 30
0.0
 40
0.0610583334
100
AcDbArc
 50
298.0724869358989
 51
61.92751193580069
  0
ARC
  5
316F
330
3110
100
AcDbEntity
  8
0
100
AcDbCircle
 10
368.8551963832074
 20
38.21688129009554
 30
0.0
 40
0.3341342318
100
AcDbArc
 50
106.5376404500981
 51
185.2604626723006
  0
ARC
  5
3170
330
3110
100
AcDbEntity
  8
0
100
AcDbCircle
 10
368.6614111286074
 20
38.02462165889555
 30
0.0
 40
0.0610583334
100
AcDbArc
 50
298.0724869358989
 51
61.92751193590046
  0
ARC
  5
3171
330
3110
100
AcDbEntity
  8
0
100
AcDbCircle
 10
366.5832654358073
 20
36.74874917969553
 30
0.0
 40
0.06
100
AcDbArc
 50
180.0
 51
270.0
  0
ARC
  5
3172
330
3110
100
AcDbEntity
  8
0
100
AcDbCircle
 10
368.2132654358073
 20
36.74874917969553
 30
0.0
 40
0.06
100
AcDbArc
 50
270.0
 51
0.0
  0
LINE
  5
3173
330
3110
100
AcDbEntity
  8
0
100
AcDbLine
 10
366.9433337026073
 20
36.73876650569555
 30
0.0
 11
367.8533337026073
 21
36.73876650569555
 31
0.0
  0
LINE
  5
3174
330
3110
100
AcDbEntity
  8
0
100
AcDbLine
 10
366.5833337026074
 20
36.68876650569553
 30
0.0
 11
366.9433337026073
 21
36.68876650569553
 31
0.0
  0
LINE
  5
3175
330
3110
100
AcDbEntity
  8
0
100
AcDbLine
 10
368.5451337026074
 20
40.29196650569555
 30
0.0
 11
368.5451337026074
 21
39.97356650569555
 31
0.0
  0
SPLINE
  5
3176
330
3110
100
AcDbEntity
  8
0
100
AcDbSpline
210
0.0
220
0.0
230
1.0
 70
    12
 71
     3
 72
    11
 73
     7
 74
     0
 42
0.0000000001
 43
0.0000000001
 40
0.0
 40
0.0
 40
0.0
 40
0.0
 40
0.1602878711001425
 40
0.1602878711001425
 40
0.1602878711001425
 40
1.0
 40
1.0
 40
1.0
 40
1.0
 10
368.9475337026079
 20
39.65916650569548
 30
0.0
 41
0.9981854115604356
 10
368.9612705993612
 20
39.66836889284128
 30
0.0
 41
0.9987036835706653
 10
368.9752052589271
 20
39.67743626299205
 30
0.0
 41
0.9993085463838536
 10
368.9893337026074
 20
39.68636650569554
 30
0.0
 41
1.0
 10
369.0632297615618
 20
39.73270133185116
 30
0.0
 41
0.9971986521643268
 10
369.1436159157106
 20
39.77486907715857
 30
0.0
 41
0.9967464228766411
 10
369.229933702607
 20
39.81256650569559
 30
0.0
 41
0.9986433121369422
  0
LINE
  5
3177
330
3110
100
AcDbEntity
  8
0
100
AcDbLine
 10
368.6865337026073
 20
40.29196650569555
 30
0.0
 11
368.5451337026074
 21
40.29196650569555
 31
0.0
  0
ARC
  5
3178
330
3110
100
AcDbEntity
  8
0
100
AcDbCircle
 10
369.3750911676074
 20
40.45505309389555
 30
0.0
 40
0.6585949001999999
100
AcDbArc
 50
229.525648484401
 51
257.2645123733003
  0
SPLINE
  5
3179
330
3110
100
AcDbEntity
  8
0
100
AcDbSpline
210
0.0
220
0.0
230
1.0
 70
    12
 71
     3
 72
    11
 73
     7
 74
     0
 42
0.0000000001
 43
0.0000000001
 40
0.0
 40
0.0
 40
0.0
 40
0.0
 40
0.8271226919382449
 40
0.8271226919382449
 40
0.8271226919382449
 40
1.0
 40
1.0
 40
1.0
 40
1.0
 10
369.2641337026074
 20
40.12916650569554
 30
0.0
 41
1.0
 10
369.1171337026073
 20
40.02496650569555
 30
0.0
 41
1.0
 10
368.9985337026073
 20
39.98456650569555
 30
0.0
 41
1.0
 10
368.9439337026073
 20
39.97416650569554
 30
0.0
 41
1.0
 10
368.9323337026074
 20
39.97196650569553
 30
0.0
 41
1.0
 10
368.9237337026074
 20
39.97116650569553
 30
0.0
 41
1.0
 10
368.9181337026074
 20
39.97136650569554
 30
0.0
 41
1.0
  0
LINE
  5
317A
330
3110
100
AcDbEntity
  8
0
100
AcDbLine
 10
368.9475337026073
 20
40.37876650569553
 30
0.0
 11
368.9475337026073
 21
40.33236650569552
 31
0.0
  0
POINT
  5
317B
330
3110
100
AcDbEntity
  8
0
100
AcDbPoint
 10
368.9475337026073
 20
40.37876650569553
 30
0.0
 50
180.0
  0
LINE
  5
317C
330
3110
100
AcDbEntity
  8
0
100
AcDbLine
 10
369.2709337026074
 20
40.15676650569555
 30
0.0
 11
369.2641337026074
 21
40.12916650569554
 31
0.0
  0
SPLINE
  5
317D
330
3110
100
AcDbEntity
  8
0
100
AcDbSpline
210
0.0
220
0.0
230
1.0
 70
    12
 71
     3
 72
    11
 73
     7
 74
     0
 42
0.0000000001
 43
0.0000000001
 40
0.0
 40
0.0
 40
0.0
 40
0.0
 40
0.5912675231654512
 40
0.5912675231654512
 40
0.5912675231654512
 40
1.0
 40
1.0
 40
1.0
 40
1.0
 10
368.9475337026073
 20
40.37876650569553
 30
0.0
 41
1.0
 10
368.9437337026074
 20
40.38876650569554
 30
0.0
 41
1.0
 10
368.9387337026074
 20
40.39876650569554
 30
0.0
 41
1.0
 10
368.9325337026074
 20
40.40916650569554
 30
0.0
 41
1.0
 10
368.9283337026073
 20
40.41616650569554
 30
0.0
 41
1.0
 10
368.9235337026074
 20
40.42336650569553
 30
0.0
 41
1.0
 10
368.9181337026074
 20
40.43056650569554
 30
0.0
 41
1.0
  0
LINE
  5
317E
330
3110
100
AcDbEntity
  8
0
100
AcDbLine
 10
368.5915337026074
 20
40.71816650569554
 30
0.0
 11
368.5625337026074
 21
40.69756650569554
 31
0.0
  0
SPLINE
  5
317F
330
3110
100
AcDbEntity
  8
0
100
AcDbSpline
210
0.0
220
0.0
230
1.0
 70
    12
 71
     3
 72
    11
 73
     7
 74
     0
 42
0.0000000001
 43
0.0000000001
 40
0.0
 40
0.0
 40
0.0
 40
0.0
 40
0.9256995180275755
 40
0.9256995180275755
 40
0.9256995180275755
 40
1.0
 40
1.0
 40
1.0
 40
1.0
 10
368.5625337026074
 20
40.69756650569554
 30
0.0
 41
1.0
 10
368.5924096208507
 20
40.63954083337431
 30
0.0
 41
0.9917957493997159
 10
368.6301065780488
 20
40.58334461840639
 30
0.0
 41
0.9856543800105903
 10
368.6755337026074
 20
40.52936650569554
 30
0.0
 41
0.9815758918326235
 10
368.6791336788452
 20
40.5250998671914
 30
0.0
 41
0.9815629340311959
 10
368.6828003939161
 20
40.52076647665291
 30
0.0
 41
0.9815629340311959
 10
368.6865337026074
 20
40.51636650569554
 30
0.0
 41
0.9815758918326235
  0
SPLINE
  5
3180
330
3110
100
AcDbEntity
  8
0
100
AcDbSpline
210
0.0
220
0.0
230
1.0
 70
    12
 71
     3
 72
    14
 73
    10
 74
     0
 42
0.0000000001
 43
0.0000000001
 40
0.0
 40
0.0
 40
0.0
 40
0.0
 40
0.1458753897556455
 40
0.1458753897556455
 40
0.1458753897556455
 40
0.8341764262105229
 40
0.8341764262105229
 40
0.8341764262105229
 40
1.0
 40
1.0
 40
1.0
 40
1.0
 10
368.9603337026074
 20
40.49636650569554
 30
0.0
 41
1.0
 10
368.9575337026074
 20
40.49156650569555
 30
0.0
 41
1.0
 10
368.9547337026074
 20
40.48696650569554
 30
0.0
 41
1.0
 10
368.9521337026074
 20
40.48236650569553
 30
0.0
 41
1.0
 10
368.9395337026074
 20
40.46076650569552
 30
0.0
 41
1.0
 10
368.9297337026073
 20
40.44136650569553
 30
0.0
 41
1.0
 10
368.9227337026074
 20
40.42436650569554
 30
0.0
 41
1.0
 10
368.9211337026073
 20
40.42016650569554
 30
0.0
 41
1.0
 10
368.9195337026074
 20
40.41616650569554
 30
0.0
 41
1.0
 10
368.9181337026074
 20
40.41236650569554
 30
0.0
 41
1.0
  0
SPLINE
  5
3181
330
3110
100
AcDbEntity
  8
0
100
AcDbSpline
210
0.0
220
0.0
230
1.0
 70
    12
 71
     3
 72
    11
 73
     7
 74
     0
 42
0.0000000001
 43
0.0000000001
 40
0.0
 40
0.0
 40
0.0
 40
0.0
 40
0.1246869373715887
 40
0.1246869373715887
 40
0.1246869373715887
 40
1.0
 40
1.0
 40
1.0
 40
1.0
 10
368.9857337026074
 20
40.48436650569554
 30
0.0
 41
1.0
 10
368.9827337026073
 20
40.47856650569555
 30
0.0
 41
1.0
 10
368.9797337026074
 20
40.47276650569552
 30
0.0
 41
1.0
 10
368.9771337026074
 20
40.46736650569554
 30
0.0
 41
1.0
 10
368.9579337026074
 20
40.42856650569553
 30
0.0
 41
1.0
 10
368.9475337026073
 20
40.39796650569554
 30
0.0
 41
1.0
 10
368.9475337026073
 20
40.37676650569554
 30
0.0
 41
1.0
  0
SPLINE
  5
3182
330
3110
100
AcDbEntity
  8
0
100
AcDbSpline
210
0.0
220
0.0
230
1.0
 70
    12
 71
     3
 72
    11
 73
     7
 74
     0
 42
0.0000000001
 43
0.0000000001
 40
0.0
 40
0.0
 40
0.0
 40
0.0
 40
0.8528247614637132
 40
0.8528247614637132
 40
0.8528247614637132
 40
1.0
 40
1.0
 40
1.0
 40
1.0
 10
368.5915337026074
 20
40.71816650569554
 30
0.0
 41
1.0
 10
368.61359818938
 20
40.67563255528969
 30
0.0
 41
0.9938173877667406
 10
368.6398746796581
 20
40.6339785362954
 30
0.0
 41
0.9888062703681518
 10
368.6703337026069
 20
40.59336650569556
 30
0.0
 41
0.9849666478042335
 10
368.6756669438539
 20
40.58643329207499
 30
0.0
 41
0.984932635593352
 10
368.6810671303295
 20
40.57949971931612
 30
0.0
 41
0.984932635593352
 10
368.6865337026071
 20
40.57256650569557
 30
0.0
 41
0.9849666478042335
  0
SPLINE
  5
3183
330
3110
100
AcDbEntity
  8
0
100
AcDbSpline
210
0.0
220
0.0
230
1.0
 70
    12
 71
     3
 72
    11
 73
     7
 74
     0
 42
0.0000000001
 43
0.0000000001
 40
0.0
 40
0.0
 40
0.0
 40
0.0
 40
0.1835915335377639
 40
0.1835915335377639
 40
0.1835915335377639
 40
1.0
 40
1.0
 40
1.0
 40
1.0
 10
368.6865337026073
 20
40.64236650569553
 30
0.0
 41
1.0
 10
368.6811337026074
 20
40.64676650569553
 30
0.0
 41
1.0
 10
368.6757337026074
 20
40.65096650569553
 30
0.0
 41
1.0
 10
368.6703337026074
 20
40.65536650569553
 30
0.0
 41
1.0
 10
368.6457337026074
 20
40.67496650569553
 30
0.0
 41
1.0
 10
368.6195337026074
 20
40.69596650569554
 30
0.0
 41
1.0
 10
368.5915337026074
 20
40.71816650569554
 30
0.0
 41
1.0
  0
SPLINE
  5
3184
330
3110
100
AcDbEntity
  8
0
100
AcDbSpline
210
0.0
220
0.0
230
1.0
 70
    12
 71
     3
 72
    11
 73
     7
 74
     0
 42
0.0000000001
 43
0.0000000001
 40
0.0
 40
0.0
 40
0.0
 40
0.0
 40
0.0688153980620277
 40
0.0688153980620277
 40
0.0688153980620277
 40
1.0
 40
1.0
 40
1.0
 40
1.0
 10
368.9947337026074
 20
40.48016650569554
 30
0.0
 41
1.0
 10
368.9935337026073
 20
40.47876650569552
 30
0.0
 41
1.0
 10
368.9925337026074
 20
40.47736650569553
 30
0.0
 41
1.0
 10
368.9913337026073
 20
40.47616650569555
 30
0.0
 41
1.0
 10
368.9767337026073
 20
40.45796650569554
 30
0.0
 41
1.0
 10
368.9653337026074
 20
40.43976650569553
 30
0.0
 41
1.0
 10
368.9579337026074
 20
40.42216650569555
 30
0.0
 41
1.0
  0
SPLINE
  5
3185
330
3110
100
AcDbEntity
  8
0
100
AcDbSpline
210
0.0
220
0.0
230
1.0
 70
    12
 71
     3
 72
    11
 73
     7
 74
     0
 42
0.0000000001
 43
0.0000000001
 40
0.0
 40
0.0
 40
0.0
 40
0.0
 40
0.0690311063402477
 40
0.0690311063402477
 40
0.0690311063402477
 40
1.0
 40
1.0
 40
1.0
 40
1.0
 10
368.9181337026074
 20
40.31216650569553
 30
0.0
 41
1.0
 10
368.9251733477399
 20
40.30738485994544
 30
0.0
 41
0.9924104378212913
 10
368.9322402811191
 20
40.3026508406404
 30
0.0
 41
0.9848868165405251
 10
368.9393337026073
 20
40.29796650569553
 30
0.0
 41
0.9774291361577011
 10
369.0360284489387
 20
40.23359237899415
 30
0.0
 41
0.9807088146827691
 10
369.1448481639192
 20
40.17714580014576
 30
0.0
 41
0.9882324359635351
 10
369.2641337026074
 20
40.12916650569554
 30
0.0
 41
1.0
  0
SPLINE
  5
3186
330
3110
100
AcDbEntity
  8
0
100
AcDbSpline
210
0.0
220
0.0
230
1.0
 70
    12
 71
     3
 72
    11
 73
     7
 74
     0
 42
0.0000000001
 43
0.0000000001
 40
0.0
 40
0.0
 40
0.0
 40
0.0
 40
0.0483470387050635
 40
0.0483470387050635
 40
0.0483470387050635
 40
1.0
 40
1.0
 40
1.0
 40
1.0
 10
368.9181337026074
 20
40.35316650569553
 30
0.0
 41
1.0
 10
368.9230475505383
 20
40.34958072477293
 30
0.0
 41
0.9921624253777922
 10
368.9280471679211
 20
40.34604676626997
 30
0.0
 41
0.9843835555875596
 10
368.9331337026071
 20
40.34256650569554
 30
0.0
 41
0.9766633906293023
 10
369.0324733202649
 20
40.27166685922227
 30
0.0
 41
0.9794203336254787
 10
369.1457506098557
 20
40.20948912042059
 30
0.0
 41
0.9871992034157111
 10
369.2709337026074
 20
40.15676650569555
 30
0.0
 41
1.0
  0
SPLINE
  5
3187
330
3110
100
AcDbEntity
  8
0
100
AcDbSpline
210
0.0
220
0.0
230
1.0
 70
    12
 71
     3
 72
    11
 73
     7
 74
     0
 42
0.0000000001
 43
0.0000000001
 40
0.0
 40
0.0
 40
0.0
 40
0.0
 40
0.1291509504100079
 40
0.1291509504100079
 40
0.1291509504100079
 40
1.0
 40
1.0
 40
1.0
 40
1.0
 10
368.6865337026073
 20
40.72436650569555
 30
0.0
 41
1.0
 10
368.6817337026074
 20
40.73036650569554
 30
0.0
 41
1.0
 10
368.6769337026074
 20
40.73656650569552
 30
0.0
 41
1.0
 10
368.6721337026074
 20
40.74276650569554
 30
0.0
 41
1.0
 10
368.6393337026073
 20
40.78516650569555
 30
0.0
 41
1.0
 10
368.6029337026074
 20
40.83236650569552
 30
0.0
 41
1.0
 10
368.5625337026074
 20
40.88496650569553
 30
0.0
 41
1.0
  0
SPLINE
  5
3188
330
3110
100
AcDbEntity
  8
0
100
AcDbSpline
210
0.0
220
0.0
230
1.0
 70
    12
 71
     3
 72
     8
 73
     4
 74
     0
 42
0.0000000001
 43
0.0000000001
 40
0.0
 40
0.0
 40
0.0
 40
0.0
 40
1.0
 40
1.0
 40
1.0
 40
1.0
 10
368.5625337026074
 20
40.88496650569553
 30
0.0
 41
1.0
 10
368.594894802052
 20
40.94875649184353
 30
0.0
 41
0.9976044834269851
 10
368.6363273878313
 20
41.00422269538664
 30
0.0
 41
0.9976044834269851
 10
368.6865337026073
 20
41.05096650569553
 30
0.0
 41
1.0
  0
SPLINE
  5
3189
330
3110
100
AcDbEntity
  8
0
100
AcDbSpline
210
0.0
220
0.0
230
1.0
 70
    12
 71
     3
 72
    11
 73
     7
 74
     0
 42
0.0000000001
 43
0.0000000001
 40
0.0
 40
0.0
 40
0.0
 40
0.0
 40
0.7904967571564471
 40
0.7904967571564471
 40
0.7904967571564471
 40
1.0
 40
1.0
 40
1.0
 40
1.0
 10
369.2709337026074
 20
40.61516650569553
 30
0.0
 41
1.0
 10
369.2407337026074
 20
40.61296650569555
 30
0.0
 41
1.0
 10
369.2117337026074
 20
40.60756650569554
 30
0.0
 41
1.0
 10
369.1843337026074
 20
40.59956650569552
 30
0.0
 41
1.0
 10
369.1771337026074
 20
40.59756650569554
 30
0.0
 41
1.0
 10
369.1701337026074
 20
40.59516650569555
 30
0.0
 41
1.0
 10
369.1631337026074
 20
40.59276650569553
 30
0.0
 41
1.0
  0
SPLINE
  5
318A
330
3110
100
AcDbEntity
  8
0
100
AcDbSpline
210
0.0
220
0.0
230
1.0
 70
    12
 71
     3
 72
     8
 73
     4
 74
     0
 42
0.0000000001
 43
0.0000000001
 40
0.0
 40
0.0
 40
0.0
 40
0.0
 40
1.0
 40
1.0
 40
1.0
 40
1.0
 10
369.1697337026074
 20
40.58956650569554
 30
0.0
 41
1.0
 10
369.202527384376
 20
40.59956457940547
 30
0.0
 41
0.9996148903541955
 10
369.2362737137462
 20
40.60810120027384
 30
0.0
 41
0.9996148903541955
 10
369.2709337026074
 20
40.61516650569553
 30
0.0
 41
1.0
  0
SPLINE
  5
318B
330
3110
100
AcDbEntity
  8
0
100
AcDbSpline
210
0.0
220
0.0
230
1.0
 70
    12
 71
     3
 72
    11
 73
     7
 74
     0
 42
0.0000000001
 43
0.0000000001
 40
0.0
 40
0.0
 40
0.0
 40
0.0
 40
0.8673160201252047
 40
0.8673160201252047
 40
0.8673160201252047
 40
1.0
 40
1.0
 40
1.0
 40
1.0
 10
369.2641337026074
 20
40.65096650569553
 30
0.0
 41
1.0
 10
369.2195337026074
 20
40.64656650569552
 30
0.0
 41
1.0
 10
369.1775337026074
 20
40.63536650569555
 30
0.0
 41
1.0
 10
369.1391337026074
 20
40.61976650569554
 30
0.0
 41
1.0
 10
369.1333337026074
 20
40.61756650569552
 30
0.0
 41
1.0
 10
369.1275337026074
 20
40.61496650569552
 30
0.0
 41
1.0
 10
369.1217337026074
 20
40.61236650569552
 30
0.0
 41
1.0
  0
LINE
  5
318C
330
3110
100
AcDbEntity
  8
0
100
AcDbLine
 10
369.2709337026074
 20
40.61516650569553
 30
0.0
 11
369.2641337026074
 21
40.65096650569553
 31
0.0
  0
SPLINE
  5
318D
330
3110
100
AcDbEntity
  8
0
100
AcDbSpline
210
0.0
220
0.0
230
1.0
 70
    12
 71
     3
 72
    11
 73
     7
 74
     0
 42
0.0000000001
 43
0.0000000001
 40
0.0
 40
0.0
 40
0.0
 40
0.0
 40
0.9317246619294046
 40
0.9317246619294046
 40
0.9317246619294046
 40
1.0
 40
1.0
 40
1.0
 40
1.0
 10
369.2319337026074
 20
40.86236650569552
 30
0.0
 41
1.0
 10
369.1717337026073
 20
40.78696650569552
 30
0.0
 41
1.0
 10
369.1169337026074
 20
40.71736650569554
 30
0.0
 41
1.0
 10
369.0703337026074
 20
40.65516650569552
 30
0.0
 41
1.0
 10
369.0669337026073
 20
40.65056650569554
 30
0.0
 41
1.0
 10
369.0635337026074
 20
40.64616650569553
 30
0.0
 41
1.0
 10
369.0603337026074
 20
40.64176650569553
 30
0.0
 41
1.0
  0
SPLINE
  5
318E
330
3110
100
AcDbEntity
  8
0
100
AcDbSpline
210
0.0
220
0.0
230
1.0
 70
    12
 71
     3
 72
    11
 73
     7
 74
     0
 42
0.0000000001
 43
0.0000000001
 40
0.0
 40
0.0
 40
0.0
 40
0.0
 40
0.8906135116194437
 40
0.8906135116194437
 40
0.8906135116194437
 40
1.0
 40
1.0
 40
1.0
 40
1.0
 10
369.2347337026074
 20
40.86096650569554
 30
0.0
 41
1.0
 10
369.1813337026074
 20
40.78636650569553
 30
0.0
 41
1.0
 10
369.1327337026074
 20
40.71756650569555
 30
0.0
 41
1.0
 10
369.0915337026074
 20
40.65616650569553
 30
0.0
 41
1.0
 10
369.0865337026074
 20
40.64856650569553
 30
0.0
 41
1.0
 10
369.0815337026074
 20
40.64116650569554
 30
0.0
 41
1.0
 10
369.0767337026074
 20
40.63396650569553
 30
0.0
 41
1.0
  0
SPLINE
  5
318F
330
3110
100
AcDbEntity
  8
0
100
AcDbSpline
210
0.0
220
0.0
230
1.0
 70
     8
 71
     3
 72
    11
 73
     7
 74
     0
 42
0.0000000001
 43
0.0000000001
 40
0.0
 40
0.0
 40
0.0
 40
0.0
 40
0.0722965342329333
 40
0.0722965342329333
 40
0.0722965342329333
 40
1.0
 40
1.0
 40
1.0
 40
1.0
 10
372.2819337026074
 20
40.14416650569553
 30
0.0
 10
372.2901337026073
 20
40.14456650569554
 30
0.0
 10
372.2983899668168
 20
40.14518825588994
 30
0.0
 10
372.3065835095598
 20
40.14601698692329
 30
0.0
 10
372.411722408406
 20
40.15665119864556
 30
0.0
 10
372.5065337026074
 20
40.20136650569552
 30
0.0
 10
372.6495337026074
 20
40.28156650569554
 30
0.0
  0
ARC
  5
3190
330
3110
100
AcDbEntity
  8
0
100
AcDbCircle
 10
372.6292520142074
 20
40.30482672949555
 30
0.0
 40
0.0308023372
100
AcDbArc
 50
311.0860572427
 51
107.4600016870998
  0
SPLINE
  5
3191
330
3110
100
AcDbEntity
  8
0
100
AcDbSpline
210
0.0
220
0.0
230
1.0
 70
     8
 71
     3
 72
    11
 73
     7
 74
     0
 42
0.0000000001
 43
0.0000000001
 40
0.0
 40
0.0
 40
0.0
 40
0.0
 40
0.3039344494715028
 40
0.3039344494715028
 40
0.3039344494715028
 40
1.0
 40
1.0
 40
1.0
 40
1.0
 10
372.1891337026073
 20
40.27116650569554
 30
0.0
 10
372.2283337026074
 20
40.26196650569555
 30
0.0
 10
372.2635900987461
 20
40.26081155478755
 30
0.0
 10
372.2979966343087
 20
40.26468186641646
 30
0.0
 10
372.3767939018109
 20
40.27354558883881
 30
0.0
 10
372.4511337026074
 20
40.30876650569553
 30
0.0
 10
372.5905337026073
 20
40.38676650569554
 30
0.0
  0
ARC
  5
3192
330
3110
100
AcDbEntity
  8
0
100
AcDbCircle
 10
372.6107681506074
 20
40.36359306929552
 30
0.0
 40
0.0308023372
100
AcDbArc
 50
131.0860572426999
 51
287.4600016870997
  0
SPLINE
  5
3193
330
3110
100
AcDbEntity
  8
0
100
AcDbSpline
210
0.0
220
0.0
230
1.0
 70
     8
 71
     3
 72
     8
 73
     4
 74
     0
 42
0.0000000001
 43
0.0000000001
 40
0.0
 40
0.0
 40
0.0
 40
0.0
 40
1.0
 40
1.0
 40
1.0
 40
1.0
 10
372.1047337026074
 20
40.35556650569552
 30
0.0
 10
372.2393337026074
 20
40.33876650569554
 30
0.0
 10
372.4091337026074
 20
40.31856650569555
 30
0.0
 10
372.5897337026073
 20
40.41456650569553
 30
0.0
  0
ARC
  5
3194
330
3110
100
AcDbEntity
  8
0
100
AcDbCircle
 10
372.5997670374074
 20
40.35742633989555
 30
0.0
 40
0.0308023372
100
AcDbArc
 50
311.0860583596001
 51
107.4600028040013
  0
ARC
  5
3195
330
3110
100
AcDbEntity
  8
0
100
AcDbCircle
 10
372.5700701120074
 20
40.43830934409553
 30
0.0
 40
0.0308023372
100
AcDbArc
 50
309.8130272164012
 51
106.1869716608989
  0
SPLINE
  5
3196
330
3110
100
AcDbEntity
  8
0
100
AcDbSpline
210
0.0
220
0.0
230
1.0
 70
     8
 71
     3
 72
    11
 73
     7
 74
     0
 42
0.0000000001
 43
0.0000000001
 40
0.0
 40
0.0
 40
0.0
 40
0.0
 40
0.0565767199995819
 40
0.0565767199995819
 40
0.0565767199995819
 40
1.0
 40
1.0
 40
1.0
 40
1.0
 10
372.0477337026074
 20
40.48356650569554
 30
0.0
 10
372.0565337026073
 20
40.48256650569554
 30
0.0
 10
372.0651337026073
 20
40.48176650569554
 30
0.0
 10
372.0737337026073
 20
40.48076650569553
 30
0.0
 10
372.2187337026074
 20
40.46436650569552
 30
0.0
 10
372.3701337026074
 20
40.43436650569552
 30
0.0
 10
372.5331337026073
 20
40.52116650569554
 30
0.0
  0
ARC
  5
3197
330
3110
100
AcDbEntity
  8
0
100
AcDbCircle
 10
372.5528964070074
 20
40.49747183009553
 30
0.0
 40
0.0308023372
100
AcDbArc
 50
129.8130272164986
 51
286.1869716608989
  0
ARC
  5
3198
330
3110
100
AcDbEntity
  8
0
100
AcDbCircle
 10
372.5417610046073
 20
40.49155103169554
 30
0.0
 40
0.0308023372
100
AcDbArc
 50
309.813028336599
 51
106.186972781001
  0
LINE
  5
3199
330
3110
100
AcDbEntity
  8
0
100
AcDbLine
 10
368.5451337026074
 20
39.97356650569555
 30
0.0
 11
368.5451337026074
 21
39.65536650569553
 31
0.0
  0
LINE
  5
319A
330
3110
100
AcDbEntity
  8
0
100
AcDbLine
 10
368.9475337026073
 20
39.97496650569554
 30
0.0
 11
368.9475337026073
 21
39.61896650569555
 31
0.0
  0
ARC
  5
319B
330
3110
100
AcDbEntity
  8
0
100
AcDbCircle
 10
368.7120505620073
 20
39.97365031749554
 30
0.0
 40
0.0708571428
100
AcDbArc
 50
111.1560423197991
 51
248.8439589864995
  0
SPLINE
  5
319C
330
3110
100
AcDbEntity
  8
0
100
AcDbSpline
210
0.0
220
0.0
230
1.0
 70
    12
 71
     3
 72
    11
 73
     7
 74
     0
 42
0.0000000001
 43
0.0000000001
 40
0.0
 40
0.0
 40
0.0
 40
0.0
 40
0.8579928259635311
 40
0.8579928259635311
 40
0.8579928259635311
 40
1.0
 40
1.0
 40
1.0
 40
1.0
 10
368.5915337026074
 20
39.86996650569555
 30
0.0
 41
1.0
 10
368.6137306889544
 20
39.81693298741669
 30
0.0
 41
0.9937802165096844
 10
368.6402073533969
 20
39.76699040080158
 30
0.0
 41
0.9887460569488254
 10
368.6709337026073
 20
39.72036650569555
 30
0.0
 41
0.9848975213174233
 10
368.6760002878274
 20
39.71263329667547
 30
0.0
 41
0.9848658579020755
 10
368.6812004550073
 20
39.70503305233562
 30
0.0
 41
0.9848658579020755
 10
368.6865337026073
 20
39.69756650569553
 30
0.0
 41
0.9848975213174233
  0
LINE
  5
319D
330
3110
100
AcDbEntity
  8
0
100
AcDbLine
 10
368.7965337026073
 20
38.13916650569554
 30
0.0
 11
368.7965337026073
 21
38.23316650569553
 31
0.0
  0
SPLINE
  5
319E
330
3110
100
AcDbEntity
  8
0
100
AcDbSpline
210
0.0
220
0.0
230
1.0
 70
    12
 71
     3
 72
     8
 73
     4
 74
     0
 42
0.0000000001
 43
0.0000000001
 40
0.0
 40
0.0
 40
0.0
 40
0.0
 40
1.0
 40
1.0
 40
1.0
 40
1.0
 10
368.6865337026073
 20
38.83596650569553
 30
0.0
 41
1.0
 10
368.6813337026074
 20
38.82676650569554
 30
0.0
 41
1.0
 10
368.6761337026073
 20
38.81756650569555
 30
0.0
 41
1.0
 10
368.6709337026074
 20
38.80816650569555
 30
0.0
 41
1.0
  0
SPLINE
  5
319F
330
3110
100
AcDbEntity
  8
0
100
AcDbSpline
210
0.0
220
0.0
230
1.0
 70
    12
 71
     3
 72
     8
 73
     4
 74
     0
 42
0.0000000001
 43
0.0000000001
 40
0.0
 40
0.0
 40
0.0
 40
0.0
 40
1.0
 40
1.0
 40
1.0
 40
1.0
 10
368.6915337026073
 20
38.89156650569553
 30
0.0
 41
1.0
 10
368.6711337026074
 20
38.85896650569553
 30
0.0
 41
1.0
 10
368.6491337026074
 20
38.82416650569554
 30
0.0
 41
1.0
 10
368.6253337026073
 20
38.78656650569554
 30
0.0
 41
1.0
  0
LINE
  5
31A0
330
3110
100
AcDbEntity
  8
0
100
AcDbLine
 10
368.5915337026074
 20
39.06136650569554
 30
0.0
 11
368.5625337026074
 21
39.06236650569555
 31
0.0
  0
SPLINE
  5
31A1
330
3110
100
AcDbEntity
  8
0
100
AcDbSpline
210
0.0
220
0.0
230
1.0
 70
    12
 71
     3
 72
     8
 73
     4
 74
     0
 42
0.0000000001
 43
0.0000000001
 40
0.0
 40
0.0
 40
0.0
 40
0.0
 40
1.0
 40
1.0
 40
1.0
 40
1.0
 10
368.5915337026074
 20
39.06136650569554
 30
0.0
 41
1.0
 10
368.6175129204642
 20
39.01114001783885
 30
0.0
 41
0.9984039251374719
 10
368.6492302102998
 20
38.96660226558536
 30
0.0
 41
0.9984039251374719
 10
368.6865337026073
 20
38.92796650569554
 30
0.0
 41
1.0
  0
SPLINE
  5
31A2
330
3110
100
AcDbEntity
  8
0
100
AcDbSpline
210
0.0
220
0.0
230
1.0
 70
    12
 71
     3
 72
     8
 73
     4
 74
     0
 42
0.0000000001
 43
0.0000000001
 40
0.0
 40
0.0
 40
0.0
 40
0.0
 40
1.0
 40
1.0
 40
1.0
 40
1.0
 10
368.5625337026074
 20
39.06236650569555
 30
0.0
 41
1.0
 10
368.594894802052
 20
38.99857651954754
 30
0.0
 41
0.9976044834269851
 10
368.6363273878313
 20
38.94311031600444
 30
0.0
 41
0.9976044834269851
 10
368.6865337026073
 20
38.89636650569555
 30
0.0
 41
1.0
  0
SPLINE
  5
31A3
330
3110
100
AcDbEntity
  8
0
100
AcDbSpline
210
0.0
220
0.0
230
1.0
 70
    12
 71
     3
 72
     8
 73
     4
 74
     0
 42
0.0000000001
 43
0.0000000001
 40
0.0
 40
0.0
 40
0.0
 40
0.0
 40
1.0
 40
1.0
 40
1.0
 40
1.0
 10
368.6865337026073
 20
39.18196650569554
 30
0.0
 41
1.0
 10
368.6575337026074
 20
39.14536650569554
 30
0.0
 41
1.0
 10
368.6259337026074
 20
39.10536650569555
 30
0.0
 41
1.0
 10
368.5915337026074
 20
39.06136650569554
 30
0.0
 41
1.0
  0
LINE
  5
31A4
330
3110
100
AcDbEntity
  8
0
100
AcDbLine
 10
368.5915337026074
 20
39.22896650569553
 30
0.0
 11
368.5625337026074
 21
39.24976650569554
 31
0.0
  0
SPLINE
  5
31A5
330
3110
100
AcDbEntity
  8
0
100
AcDbSpline
210
0.0
220
0.0
230
1.0
 70
    12
 71
     3
 72
     8
 73
     4
 74
     0
 42
0.0000000001
 43
0.0000000001
 40
0.0
 40
0.0
 40
0.0
 40
0.0
 40
1.0
 40
1.0
 40
1.0
 40
1.0
 10
368.6865337026073
 20
39.22296650569553
 30
0.0
 41
1.0
 10
368.6501337026074
 20
39.17596650569553
 30
0.0
 41
1.0
 10
368.6089337026074
 20
39.12276650569553
 30
0.0
 41
1.0
 10
368.5625337026074
 20
39.06236650569555
 30
0.0
 41
1.0
  0
SPLINE
  5
31A6
330
3110
100
AcDbEntity
  8
0
100
AcDbSpline
210
0.0
220
0.0
230
1.0
 70
    12
 71
     3
 72
     8
 73
     4
 74
     0
 42
0.0000000001
 43
0.0000000001
 40
0.0
 40
0.0
 40
0.0
 40
0.0
 40
1.0
 40
1.0
 40
1.0
 40
1.0
 10
368.6865337026073
 20
39.30496650569553
 30
0.0
 41
1.0
 10
368.6575337026074
 20
39.28156650569555
 30
0.0
 41
1.0
 10
368.6259337026074
 20
39.25636650569553
 30
0.0
 41
1.0
 10
368.5915337026074
 20
39.22896650569553
 30
0.0
 41
1.0
  0
SPLINE
  5
31A7
330
3110
100
AcDbEntity
  8
0
100
AcDbSpline
210
0.0
220
0.0
230
1.0
 70
    12
 71
     3
 72
     8
 73
     4
 74
     0
 42
0.0000000001
 43
0.0000000001
 40
0.0
 40
0.0
 40
0.0
 40
0.0
 40
1.0
 40
1.0
 40
1.0
 40
1.0
 10
368.6865337026073
 20
39.34736650569554
 30
0.0
 41
1.0
 10
368.6501337026074
 20
39.31856650569555
 30
0.0
 41
1.0
 10
368.6089337026074
 20
39.28656650569554
 30
0.0
 41
1.0
 10
368.5625337026074
 20
39.24976650569554
 30
0.0
 41
1.0
  0
SPLINE
  5
31A8
330
3110
100
AcDbEntity
  8
0
100
AcDbSpline
210
0.0
220
0.0
230
1.0
 70
    12
 71
     3
 72
    11
 73
     7
 74
     0
 42
0.0000000001
 43
0.0000000001
 40
0.0
 40
0.0
 40
0.0
 40
0.0
 40
0.8746570580986594
 40
0.8746570580986594
 40
0.8746570580986594
 40
1.0
 40
1.0
 40
1.0
 40
1.0
 10
368.5625337026074
 20
39.24976650569554
 30
0.0
 41
1.0
 10
368.5906898941801
 20
39.304617954372
 30
0.0
 41
0.9922439918506784
 10
368.6259134663268
 20
39.35779451045736
 30
0.0
 41
0.9863316098474887
 10
368.6681337026074
 20
39.40896650569552
 30
0.0
 41
0.9822628539904311
 10
368.6741335898971
 20
39.41629970127149
 30
0.0
 41
0.9822259515751582
 10
368.6802671536611
 20
39.42356664094818
 30
0.0
 41
0.9822259515751582
 10
368.6865337026073
 20
39.43076650569555
 30
0.0
 41
0.9822628539904311
  0
SPLINE
  5
31A9
330
3110
100
AcDbEntity
  8
0
100
AcDbSpline
210
0.0
220
0.0
230
1.0
 70
    12
 71
     3
 72
     8
 73
     4
 74
     0
 42
0.0000000001
 43
0.0000000001
 40
0.0
 40
0.0
 40
0.0
 40
0.0
 40
1.0
 40
1.0
 40
1.0
 40
1.0
 10
369.0705337026074
 20
38.99836650569555
 30
0.0
 41
1.0
 10
369.0167337026074
 20
39.08456650569554
 30
0.0
 41
1.0
 10
368.9777337026074
 20
39.17076650569553
 30
0.0
 41
1.0
 10
368.9593337026074
 20
39.24136650569554
 30
0.0
 41
1.0
  0
SPLINE
  5
31AA
330
3110
100
AcDbEntity
  8
0
100
AcDbSpline
210
0.0
220
0.0
230
1.0
 70
    12
 71
     3
 72
     8
 73
     4
 74
     0
 42
0.0000000001
 43
0.0000000001
 40
0.0
 40
0.0
 40
0.0
 40
0.0
 40
1.0
 40
1.0
 40
1.0
 40
1.0
 10
369.2401337026074
 20
39.07896650569553
 30
0.0
 41
1.0
 10
369.1815337026073
 20
39.16056650569553
 30
0.0
 41
1.0
 10
369.1289337026073
 20
39.23516650569554
 30
0.0
 41
1.0
 10
369.0847337026074
 20
39.30116650569554
 30
0.0
 41
1.0
  0
SPLINE
  5
31AB
330
3110
100
AcDbEntity
  8
0
100
AcDbSpline
210
0.0
220
0.0
230
1.0
 70
    12
 71
     3
 72
    14
 73
    10
 74
     0
 42
0.0000000001
 43
0.0000000001
 40
0.0
 40
0.0
 40
0.0
 40
0.0
 40
0.1422291105344096
 40
0.1422291105344096
 40
0.1422291105344096
 40
0.8032207483440734
 40
0.8032207483440734
 40
0.8032207483440734
 40
1.0
 40
1.0
 40
1.0
 40
1.0
 10
368.9181337026074
 20
39.47376650569553
 30
0.0
 41
1.0
 10
368.9206665494442
 20
39.47216681295675
 30
0.0
 41
0.9996160709607801
 10
368.9231998914684
 20
39.4705001659484
 30
0.0
 41
0.9992356432287808
 10
368.9257337026076
 20
39.46876650569556
 30
0.0
 41
0.9988587168040028
 10
368.9376021925277
 20
39.4612986918135
 30
0.0
 41
0.9991657502634911
 10
368.9496698206465
 20
39.4540315681297
 30
0.0
 41
0.9995461779954904
 10
368.9619337026074
 20
39.44696650569555
 30
0.0
 41
1.0
 10
368.9655336909115
 20
39.44483317929324
 30
0.0
 41
0.9999935021623937
 10
368.9692003814037
 20
39.44276649919765
 30
0.0
 41
0.999993502162394
 10
368.9729337026074
 20
39.44076650569554
 30
0.0
 41
1.0
  0
LINE
  5
31AC
330
3110
100
AcDbEntity
  8
0
100
AcDbLine
 10
368.6773337026074
 20
39.65536650569553
 30
0.0
 11
368.5451337026074
 21
39.65536650569553
 31
0.0
  0
SPLINE
  5
31AD
330
3110
100
AcDbEntity
  8
0
100
AcDbSpline
210
0.0
220
0.0
230
1.0
 70
    12
 71
     3
 72
     8
 73
     4
 74
     0
 42
0.0000000001
 43
0.0000000001
 40
0.0
 40
0.0
 40
0.0
 40
0.0
 40
1.0
 40
1.0
 40
1.0
 40
1.0
 10
369.2641337026074
 20
39.29616650569555
 30
0.0
 41
1.0
 10
369.2197337026073
 20
39.30076650569553
 30
0.0
 41
1.0
 10
369.1779337026073
 20
39.31176650569555
 30
0.0
 41
1.0
 10
369.1397337026074
 20
39.32716650569555
 30
0.0
 41
1.0
  0
SPLINE
  5
31AE
330
3110
100
AcDbEntity
  8
0
100
AcDbSpline
210
0.0
220
0.0
230
1.0
 70
    12
 71
     3
 72
     8
 73
     4
 74
     0
 42
0.0000000001
 43
0.0000000001
 40
0.0
 40
0.0
 40
0.0
 40
0.0
 40
1.0
 40
1.0
 40
1.0
 40
1.0
 10
369.1435337026073
 20
39.32916650569553
 30
0.0
 41
1.0
 10
369.1824570553141
 20
39.31623648784433
 30
0.0
 41
0.9994875593108531
 10
369.2226776659914
 20
39.30523084810669
 30
0.0
 41
0.9994875593108531
 10
369.2641337026074
 20
39.29616650569555
 30
0.0
 41
1.0
  0
LINE
  5
31AF
330
3110
100
AcDbEntity
  8
0
100
AcDbLine
 10
369.2709337026074
 20
39.33216650569555
 30
0.0
 11
369.2641337026074
 21
39.29616650569555
 31
0.0
  0
SPLINE
  5
31B0
330
3110
100
AcDbEntity
  8
0
100
AcDbSpline
210
0.0
220
0.0
230
1.0
 70
    12
 71
     3
 72
    11
 73
     7
 74
     0
 42
0.0000000001
 43
0.0000000001
 40
0.0
 40
0.0
 40
0.0
 40
0.0
 40
0.2502389183501894
 40
0.2502389183501894
 40
0.2502389183501894
 40
1.0
 40
1.0
 40
1.0
 40
1.0
 10
369.1907337026074
 20
39.35156650569554
 30
0.0
 41
1.0
 10
369.1972605069818
 20
39.34970170444584
 30
0.0
 41
0.9980053255946092
 10
369.2038604800649
 20
39.34790154355646
 30
0.0
 41
0.9960285125592235
 10
369.2105337026076
 20
39.3461665056955
 30
0.0
 41
0.9940695608938435
 10
369.2304187205058
 20
39.34096170235299
 30
0.0
 41
0.9959094432784445
 10
369.2505553084625
 20
39.33629546137203
 30
0.0
 41
0.9978862563138296
 10
369.2709337026074
 20
39.33216650569555
 30
0.0
 41
1.0
  0
LINE
  5
31B1
330
3110
100
AcDbEntity
  8
0
100
AcDbLine
 10
368.5915337026074
 20
39.86996650569555
 30
0.0
 11
368.5625337026074
 21
39.85776650569555
 31
0.0
  0
LWPOLYLINE
  5
31B2
330
3110
100
AcDbEntity
  8
0
100
AcDbPolyline
 90
        6
 70
     0
 43
0.0
 10
369.0143337026074
 20
39.46036650569554
 10
368.9897337026074
 20
39.49476650569554
 10
368.9699337026074
 20
39.53316650569554
 10
368.9571337026074
 20
39.56896650569554
 10
368.9545337026074
 20
39.57836650569554
 10
368.9469337026074
 20
39.61896650569555
  0
SPLINE
  5
31B3
330
3110
100
AcDbEntity
  8
0
100
AcDbSpline
210
0.0
220
0.0
230
1.0
 70
    12
 71
     3
 72
     8
 73
     4
 74
     0
 42
0.0000000001
 43
0.0000000001
 40
0.0
 40
0.0
 40
0.0
 40
0.0
 40
1.0
 40
1.0
 40
1.0
 40
1.0
 10
368.5625337026074
 20
39.85776650569555
 30
0.0
 41
1.0
 10
368.594894802052
 20
39.77946063543455
 30
0.0
 41
0.9976044834269851
 10
368.6363273878313
 20
39.70782235808724
 30
0.0
 41
0.9976044834269851
 10
368.6865337026073
 20
39.64336650569553
 30
0.0
 41
1.0
  0
SPLINE
  5
31B4
330
3110
100
AcDbEntity
  8
0
100
AcDbSpline
210
0.0
220
0.0
230
1.0
 70
    12
 71
     3
 72
    11
 73
     7
 74
     0
 42
0.0000000001
 43
0.0000000001
 40
0.0
 40
0.0
 40
0.0
 40
0.0
 40
0.1453468679195954
 40
0.1453468679195954
 40
0.1453468679195954
 40
1.0
 40
1.0
 40
1.0
 40
1.0
 10
368.6865337026073
 20
39.89776650569554
 30
0.0
 41
1.0
 10
368.6823337026074
 20
39.89656650569552
 30
0.0
 41
1.0
 10
368.6779337026073
 20
39.89536650569554
 30
0.0
 41
1.0
 10
368.6737337026074
 20
39.89416650569553
 30
0.0
 41
1.0
 10
368.6481337026074
 20
39.88676650569554
 30
0.0
 41
1.0
 10
368.6209337026074
 20
39.87876650569553
 30
0.0
 41
1.0
 10
368.5915337026074
 20
39.86996650569555
 30
0.0
 41
1.0
  0
ARC
  5
31B5
330
3110
100
AcDbEntity
  8
0
100
AcDbCircle
 10
371.5639646188074
 20
38.42204307489554
 30
0.0
 40
0.087747
100
AcDbArc
 50
270.0
 51
0.0
  0
LINE
  5
31B6
330
3110
100
AcDbEntity
  8
0
100
AcDbLine
 10
371.3307337026074
 20
38.50236650569554
 30
0.0
 11
371.3307337026074
 21
38.42196650569555
 31
0.0
  0
LINE
  5
31B7
330
3110
100
AcDbEntity
  8
0
100
AcDbLine
 10
371.5639337026074
 20
38.59016650569553
 30
0.0
 11
371.4183337026073
 21
38.59016650569553
 31
0.0
  0
LINE
  5
31B8
330
3110
100
AcDbEntity
  8
0
100
AcDbLine
 10
371.6517337026074
 20
38.42196650569555
 30
0.0
 11
371.6517337026074
 21
38.50236650569554
 31
0.0
  0
ARC
  5
31B9
330
3110
100
AcDbEntity
  8
0
100
AcDbCircle
 10
371.4184125278074
 20
38.50238085409553
 30
0.0
 40
0.087747
100
AcDbArc
 50
90.0
 51
180.0
  0
LINE
  5
31BA
330
3110
100
AcDbEntity
  8
0
100
AcDbLine
 10
371.4183337026073
 20
38.33436650569554
 30
0.0
 11
371.5639337026074
 21
38.33436650569554
 31
0.0
  0
ARC
  5
31BB
330
3110
100
AcDbEntity
  8
0
100
AcDbCircle
 10
372.1161551692073
 20
39.83503858289553
 30
0.0
 40
0.1708757
100
AcDbArc
 50
315.0000000018012
 51
0.0000000017994306
  0
ARC
  5
31BC
330
3110
100
AcDbEntity
  8
0
100
AcDbCircle
 10
372.1161551692073
 20
40.10246113709554
 30
0.0
 40
0.1708757
100
AcDbArc
 50
359.9999999982006
 51
44.9999999981988
  0
ARC
  5
31BD
330
3110
100
AcDbEntity
  8
0
100
AcDbCircle
 10
371.4184125278074
 20
38.42204307489554
 30
0.0
 40
0.087747
100
AcDbArc
 50
180.0
 51
270.0
  0
ARC
  5
31BE
330
3110
100
AcDbEntity
  8
0
100
AcDbCircle
 10
371.5639646188074
 20
39.11112798689553
 30
0.0
 40
0.087747
100
AcDbArc
 50
270.0
 51
0.0
  0
ARC
  5
31BF
330
3110
100
AcDbEntity
  8
0
100
AcDbCircle
 10
371.4184125278074
 20
39.59087986369554
 30
0.0
 40
0.087747
100
AcDbArc
 50
90.0
 51
180.0
  0
LINE
  5
31C0
330
3110
100
AcDbEntity
  8
0
100
AcDbLine
 10
371.3307337026074
 20
39.59096650569552
 30
0.0
 11
371.3307337026074
 21
39.11116650569555
 31
0.0
  0
LINE
  5
31C1
330
3110
100
AcDbEntity
  8
0
100
AcDbLine
 10
371.4183337026073
 20
39.02336650569553
 30
0.0
 11
371.5639337026074
 21
39.02336650569553
 31
0.0
  0
LINE
  5
31C2
330
3110
100
AcDbEntity
  8
0
100
AcDbLine
 10
371.5639337026074
 20
40.25376650569553
 30
0.0
 11
371.4183337026073
 21
40.25376650569553
 31
0.0
  0
LINE
  5
31C3
330
3110
100
AcDbEntity
  8
0
100
AcDbLine
 10
371.6517337026074
 20
39.11116650569555
 30
0.0
 11
371.6517337026074
 21
39.59096650569552
 31
0.0
  0
ARC
  5
31C4
330
3110
100
AcDbEntity
  8
0
100
AcDbCircle
 10
371.4184125278074
 20
40.34145784809553
 30
0.0
 40
0.087747
100
AcDbArc
 50
180.0
 51
270.0
  0
ARC
  5
31C5
330
3110
100
AcDbEntity
  8
0
100
AcDbCircle
 10
371.5639646188074
 20
39.59087986369554
 30
0.0
 40
0.087747
100
AcDbArc
 50
0.0
 51
90.0
  0
LINE
  5
31C6
330
3110
100
AcDbEntity
  8
0
100
AcDbLine
 10
371.5639337026074
 20
39.67856650569554
 30
0.0
 11
371.4183337026073
 21
39.67856650569554
 31
0.0
  0
ARC
  5
31C7
330
3110
100
AcDbEntity
  8
0
100
AcDbCircle
 10
371.5639646188074
 20
38.50238085409553
 30
0.0
 40
0.087747
100
AcDbArc
 50
0.0
 51
90.0
  0
ARC
  5
31C8
330
3110
100
AcDbEntity
  8
0
100
AcDbCircle
 10
371.4184125278074
 20
39.11112798689553
 30
0.0
 40
0.087747
100
AcDbArc
 50
180.0
 51
270.0
  0
ARC
  5
31C9
330
3110
100
AcDbEntity
  8
0
100
AcDbCircle
 10
371.5639646188074
 20
40.34145784809553
 30
0.0
 40
0.087747
100
AcDbArc
 50
270.0
 51
0.0
  0
LINE
  5
31CA
330
3110
100
AcDbEntity
  8
0
100
AcDbLine
 10
368.2133337026074
 20
36.68876650569553
 30
0.0
 11
367.8533337026073
 21
36.68876650569553
 31
0.0
  0
LINE
  5
31CB
330
3110
100
AcDbEntity
  8
0
100
AcDbLine
 10
371.6517337026074
 20
41.50416650569554
 30
0.0
 11
371.6517337026074
 21
41.41116650569553
 31
0.0
  0
ARC
  5
31CC
330
3110
100
AcDbEntity
  8
0
100
AcDbCircle
 10
371.5639646188074
 20
40.80156882789553
 30
0.0
 40
0.087747
100
AcDbArc
 50
0.0
 51
90.0
  0
ARC
  5
31CD
330
3110
100
AcDbEntity
  8
0
100
AcDbCircle
 10
371.5639646188074
 20
41.50419326349553
 30
0.0
 40
0.087747
100
AcDbArc
 50
0.0
 51
90.0
  0
ARC
  5
31CE
330
3110
100
AcDbEntity
  8
0
100
AcDbCircle
 10
371.5639646188074
 20
41.41114705809554
 30
0.0
 40
0.087747
100
AcDbArc
 50
270.0
 51
0.0
  0
LINE
  5
31CF
330
3110
100
AcDbEntity
  8
0
100
AcDbLine
 10
371.5639337026074
 20
41.32336650569554
 30
0.0
 11
371.4183337026073
 21
41.32336650569554
 31
0.0
  0
LINE
  5
31D0
330
3110
100
AcDbEntity
  8
0
100
AcDbLine
 10
371.4183337026073
 20
40.88936650569554
 30
0.0
 11
371.5639337026074
 21
40.88936650569554
 31
0.0
  0
LINE
  5
31D1
330
3110
100
AcDbEntity
  8
0
100
AcDbLine
 10
371.4183337026073
 20
41.59196650569553
 30
0.0
 11
371.5639337026074
 21
41.59196650569553
 31
0.0
  0
LINE
  5
31D2
330
3110
100
AcDbEntity
  8
0
100
AcDbLine
 10
371.3307337026074
 20
41.41116650569553
 30
0.0
 11
371.3307337026074
 21
41.50416650569554
 31
0.0
  0
ARC
  5
31D3
330
3110
100
AcDbEntity
  8
0
100
AcDbCircle
 10
371.4184125278074
 20
41.50419326349553
 30
0.0
 40
0.087747
100
AcDbArc
 50
90.0
 51
180.0
  0
ARC
  5
31D4
330
3110
100
AcDbEntity
  8
0
100
AcDbCircle
 10
371.4184125278074
 20
41.41114705809554
 30
0.0
 40
0.087747
100
AcDbArc
 50
180.0
 51
270.0
  0
ARC
  5
31D5
330
3110
100
AcDbEntity
  8
0
100
AcDbCircle
 10
371.4184125278074
 20
40.80156882789553
 30
0.0
 40
0.087747
100
AcDbArc
 50
90.0
 51
180.0
  0
LINE
  5
31D6
330
3110
100
AcDbEntity
  8
0
100
AcDbLine
 10
371.3307337026074
 20
40.34136650569553
 30
0.0
 11
371.3307337026074
 21
40.80156650569552
 31
0.0
  0
LINE
  5
31D7
330
3110
100
AcDbEntity
  8
0
100
AcDbLine
 10
371.6517337026074
 20
40.80156650569552
 30
0.0
 11
371.6517337026074
 21
40.34136650569553
 31
0.0
  0
LINE
  5
31D8
330
3110
100
AcDbEntity
  8
0
100
AcDbLine
 10
369.3895337026074
 20
40.48496650569552
 30
0.0
 11
368.9181337026074
 21
40.70916650569553
 31
0.0
  0
LINE
  5
31D9
330
3110
100
AcDbEntity
  8
0
100
AcDbLine
 10
368.9181337026074
 20
41.01156650569553
 30
0.0
 11
369.3895337026074
 21
40.78736650569553
 31
0.0
  0
LINE
  5
31DA
330
3110
100
AcDbEntity
  8
0
100
AcDbLine
 10
372.2369337026074
 20
39.71416650569555
 30
0.0
 11
372.0477337026074
 21
39.52496650569555
 31
0.0
  0
LINE
  5
31DB
330
3110
100
AcDbEntity
  8
0
100
AcDbLine
 10
369.4663337026073
 20
41.15976650569553
 30
0.0
 11
369.3895337026074
 21
41.15976650569553
 31
0.0
  0
LINE
  5
31DC
330
3110
100
AcDbEntity
  8
0
100
AcDbLine
 10
371.9623337026074
 20
38.31176650569555
 30
0.0
 11
371.9623337026074
 21
39.96876650569554
 31
0.0
  0
LINE
  5
31DD
330
3110
100
AcDbEntity
  8
0
100
AcDbLine
 10
372.0477337026074
 20
38.44836650569554
 30
0.0
 11
372.0477337026074
 21
39.96876650569554
 31
0.0
  0
LINE
  5
31DE
330
3110
100
AcDbEntity
  8
0
100
AcDbLine
 10
369.4663337026073
 20
41.43556650569554
 30
0.0
 11
369.3895337026074
 21
41.43556650569554
 31
0.0
  0
LINE
  5
31DF
330
3110
100
AcDbEntity
  8
0
100
AcDbLine
 10
369.3895337026074
 20
41.60576650569553
 30
0.0
 11
369.3895337026074
 21
39.96876650569554
 31
0.0
  0
LINE
  5
31E0
330
3110
100
AcDbEntity
  8
0
100
AcDbLine
 10
369.3895337026074
 20
41.56596650569555
 30
0.0
 11
369.4663337026073
 21
41.56596650569555
 31
0.0
  0
LINE
  5
31E1
330
3110
100
AcDbEntity
  8
0
100
AcDbLine
 10
372.2869337026074
 20
40.10236650569553
 30
0.0
 11
372.2869337026074
 21
39.96876650569554
 31
0.0
  0
ELLIPSE
  5
31E2
330
3110
100
AcDbEntity
  8
0
100
AcDbEllipse
 10
369.4048165440074
 20
41.60576540929555
 30
0.0
 11
0.0
 21
0.0199999999999938
 31
0.0
210
0.0
220
0.0
230
0.9999999999999998
 40
0.7651191327
 41
0.0
 42
1.570796326794896
  0
LINE
  5
31E3
330
3110
100
AcDbEntity
  8
0
100
AcDbLine
 10
369.4047337026074
 20
41.62576650569554
 30
0.0
 11
369.4663337026073
 21
41.62576650569554
 31
0.0
  0
LINE
  5
31E4
330
3110
100
AcDbEntity
  8
0
100
AcDbLine
 10
369.4663337026073
 20
41.62576650569554
 30
0.0
 11
369.4663337026073
 21
39.96876650569554
 31
0.0
  0
LINE
  5
31E5
330
3110
100
AcDbEntity
  8
0
100
AcDbLine
 10
372.2369337026074
 20
40.22336650569554
 30
0.0
 11
372.0477337026074
 21
40.41236650569554
 31
0.0
  0
LINE
  5
31E6
330
3110
100
AcDbEntity
  8
0
100
AcDbLine
 10
371.8769337026074
 20
41.57456650569555
 30
0.0
 11
371.8769337026074
 21
41.62576650569554
 31
0.0
  0
ARC
  5
31E7
330
3110
100
AcDbEntity
  8
0
100
AcDbCircle
 10
371.9548556018074
 20
41.16175613229553
 30
0.0
 40
0.1034998366
100
AcDbArc
 50
85.8381349189989
 51
274.1618654746015
  0
LINE
  5
31E8
330
3110
100
AcDbEntity
  8
0
100
AcDbLine
 10
368.5769337026073
 20
38.40176650569553
 30
0.0
 11
368.6901337026073
 21
38.40176650569553
 31
0.0
  0
LINE
  5
31E9
330
3110
100
AcDbEntity
  8
0
100
AcDbLine
 10
369.3895337026074
 20
38.37776650569553
 30
0.0
 11
368.8793337026074
 21
38.13516650569555
 31
0.0
  0
ELLIPSE
  5
31EA
330
3110
100
AcDbEntity
  8
0
100
AcDbEllipse
 10
368.2885678186074
 20
38.42242300349555
 30
0.0
 11
0.0
 21
-0.020000000000009
 31
0.0
210
0.0
220
0.0
230
1.0
 40
0.7651191327
 41
3.141592653589792
 42
4.712388980384689
  0
LINE
  5
31EB
330
3110
100
AcDbEntity
  8
0
100
AcDbLine
 10
368.7225337026074
 20
38.28036650569553
 30
0.0
 11
368.8793337026074
 21
38.28036650569553
 31
0.0
  0
LINE
  5
31EC
330
3110
100
AcDbEntity
  8
0
100
AcDbLine
 10
368.7225337026074
 20
38.09216650569554
 30
0.0
 11
368.7225337026074
 21
38.28036650569553
 31
0.0
  0
ARC
  5
31ED
330
3110
100
AcDbEntity
  8
0
100
AcDbCircle
 10
368.7182152952074
 20
38.18624665889553
 30
0.0
 40
0.1957458333999999
100
AcDbArc
 50
146.6015115421978
 51
213.3984893199996
  0
LINE
  5
31EE
330
3110
100
AcDbEntity
  8
0
100
AcDbLine
 10
368.7225337026074
 20
38.09216650569554
 30
0.0
 11
368.8793337026074
 21
38.09216650569554
 31
0.0
  0
LINE
  5
31EF
330
3110
100
AcDbEntity
  8
0
100
AcDbLine
 10
368.7225337026074
 20
38.34796650569553
 30
0.0
 11
368.7225337026074
 21
38.02456650569554
 31
0.0
  0
ARC
  5
31F0
330
3110
100
AcDbEntity
  8
0
100
AcDbCircle
 10
368.5267236286073
 20
38.18624665889553
 30
0.0
 40
0.1957458333999999
100
AcDbArc
 50
326.6015115421985
 51
33.3984893199993
  0
LINE
  5
31F1
330
3110
100
AcDbEntity
  8
0
100
AcDbLine
 10
368.7225337026074
 20
38.06056650569554
 30
0.0
 11
368.7889337026074
 21
38.09216650569554
 31
0.0
  0
LINE
  5
31F2
330
3110
100
AcDbEntity
  8
0
100
AcDbLine
 10
368.5547337026073
 20
38.07856650569554
 30
0.0
 11
368.6901337026073
 21
38.07856650569554
 31
0.0
  0
LINE
  5
31F3
330
3110
100
AcDbEntity
  8
0
100
AcDbLine
 10
368.6901337026073
 20
37.97076650569554
 30
0.0
 11
368.5547337026073
 21
37.97076650569554
 31
0.0
  0
ARC
  5
31F4
330
3110
100
AcDbEntity
  8
0
100
AcDbCircle
 10
368.5835277952074
 20
38.02462165889555
 30
0.0
 40
0.0610583334
100
AcDbArc
 50
118.0724869358989
 51
241.9275119358007
  0
ELLIPSE
  5
31F5
330
3110
100
AcDbEntity
  8
0
100
AcDbEllipse
 10
368.8500584162074
 20
37.67564841229555
 30
0.0
 11
0.0
 21
0.4245115953737128
 31
0.0
210
0.0
220
0.0
230
1.0
 40
0.7651191327
 41
0.8021710199159455
 42
1.476198220821233
  0
LINE
  5
31F6
330
3110
100
AcDbEntity
  8
0
100
AcDbLine
 10
368.3567337026074
 20
37.75576650569554
 30
0.0
 11
368.3567337026074
 21
38.61676650569553
 31
0.0
  0
ELLIPSE
  5
31F7
330
3110
100
AcDbEntity
  8
0
100
AcDbEllipse
 10
368.2885678186074
 20
37.95007031429555
 30
0.0
 11
0.0
 21
0.020000000000009
 31
0.0
210
0.0
220
0.0
230
1.0
 40
0.7651191327
 41
1.570796326794896
 42
3.141592653589792
  0
LINE
  5
31F8
330
3110
100
AcDbEntity
  8
0
100
AcDbLine
 10
368.3567337026074
 20
37.93016650569553
 30
0.0
 11
368.2885337026074
 21
37.93016650569553
 31
0.0
  0
LINE
  5
31F9
330
3110
100
AcDbEntity
  8
0
100
AcDbLine
 10
368.2733337026074
 20
37.95016650569554
 30
0.0
 11
368.2733337026074
 21
38.42236650569553
 31
0.0
  0
LINE
  5
31FA
330
3110
100
AcDbEntity
  8
0
100
AcDbLine
 10
368.5225337026074
 20
38.18616650569553
 30
0.0
 11
368.5225337026074
 21
37.71576650569555
 31
0.0
  0
ELLIPSE
  5
31FB
330
3110
100
AcDbEntity
  8
0
100
AcDbEllipse
 10
368.3872854230074
 20
37.75574654089554
 30
0.0
 11
0.0
 21
-0.0400000000000072
 31
0.0
210
0.0
220
0.0
230
1.0
 40
0.7651191327
 41
4.712388980384689
 42
6.283185307179585
  0
LINE
  5
31FC
330
3110
100
AcDbEntity
  8
0
100
AcDbLine
 10
368.5225337026074
 20
37.71576650569555
 30
0.0
 11
368.3873337026074
 21
37.71576650569555
 31
0.0
  0
LINE
  5
31FD
330
3110
100
AcDbEntity
  8
0
100
AcDbLine
 10
366.4733337026074
 20
38.27456650569554
 30
0.0
 11
366.5233337026074
 21
38.27456650569554
 31
0.0
  0
LINE
  5
31FE
330
3110
100
AcDbEntity
  8
0
100
AcDbLine
 10
371.8769337026074
 20
38.36296650569554
 30
0.0
 11
371.8769337026074
 21
38.31176650569555
 31
0.0
  0
LINE
  5
31FF
330
3110
100
AcDbEntity
  8
0
100
AcDbLine
 10
371.8769337026074
 20
38.36296650569554
 30
0.0
 11
371.9623337026074
 21
38.36296650569554
 31
0.0
  0
LINE
  5
3200
330
3110
100
AcDbEntity
  8
0
100
AcDbLine
 10
369.4663337026073
 20
38.31176650569555
 30
0.0
 11
371.9623337026074
 21
38.31176650569555
 31
0.0
  0
POINT
  5
3201
330
3110
100
AcDbEntity
  8
0
100
AcDbPoint
 10
371.9623337026074
 20
38.36296650569554
 30
0.0
 50
180.0
  0
ARC
  5
3202
330
3110
100
AcDbEntity
  8
0
100
AcDbCircle
 10
371.9623670392074
 20
38.44843179449553
 30
0.0
 40
0.08543785
100
AcDbArc
 50
270.0
 51
0.0
  0
LINE
  5
3203
330
3110
100
AcDbEntity
  8
0
100
AcDbLine
 10
372.2869337026074
 20
39.83496650569552
 30
0.0
 11
372.2869337026074
 21
39.96876650569554
 31
0.0
  0
ARC
  5
3204
330
3110
100
AcDbEntity
  8
0
100
AcDbCircle
 10
371.9623670392074
 20
41.48906792549554
 30
0.0
 40
0.08543785
100
AcDbArc
 50
0.0
 51
90.0
  0
LINE
  5
3205
330
3110
100
AcDbEntity
  8
0
100
AcDbLine
 10
371.9623337026074
 20
39.58996650569555
 30
0.0
 11
371.9623337026074
 21
39.59136650569554
 31
0.0
  0
LINE
  5
3206
330
3110
100
AcDbEntity
  8
0
100
AcDbLine
 10
369.4663337026073
 20
41.62576650569554
 30
0.0
 11
371.9623337026074
 21
41.62576650569554
 31
0.0
  0
LINE
  5
3207
330
3110
100
AcDbEntity
  8
0
100
AcDbLine
 10
372.0477337026074
 20
41.48916650569552
 30
0.0
 11
372.0477337026074
 21
39.96876650569554
 31
0.0
  0
LINE
  5
3208
330
3110
100
AcDbEntity
  8
0
100
AcDbLine
 10
371.9623337026074
 20
41.62576650569554
 30
0.0
 11
371.9623337026074
 21
39.96876650569554
 31
0.0
  0
LINE
  5
3209
330
3110
100
AcDbEntity
  8
0
100
AcDbLine
 10
371.8769337026074
 20
41.57456650569555
 30
0.0
 11
371.9623337026074
 21
41.57456650569555
 31
0.0
  0
LINE
  5
320A
330
3110
100
AcDbEntity
  8
0
100
AcDbLine
 10
366.4733337026074
 20
36.95224986009553
 30
0.0
 11
366.4733337026074
 21
41.18079741721897
 31
0.0
  0
LINE
  5
320B
330
3110
100
AcDbEntity
  8
0
100
AcDbLine
 10
366.3973337026074
 20
41.22342708466502
 30
0.0
 11
366.3973337026074
 21
36.95224986009553
 31
0.0
  0
LINE
  5
320C
330
3110
100
AcDbEntity
  8
0
100
AcDbLine
 10
366.3973337026074
 20
36.95224986009553
 30
0.0
 11
366.4733337026074
 21
36.95224986009553
 31
0.0
  0
LINE
  5
320D
330
3110
100
AcDbEntity
  8
0
100
AcDbLine
 10
366.3973337026074
 20
38.52256236009561
 30
0.0
 11
366.4733337026074
 21
38.52256236009561
 31
0.0
  0
LINE
  5
320E
330
3110
100
AcDbEntity
  8
0
100
AcDbLine
 10
366.3973337026074
 20
38.80381236009561
 30
0.0
 11
366.4733337026074
 21
38.80381236009561
 31
0.0
  0
LINE
  5
320F
330
3110
100
AcDbEntity
  8
0
100
AcDbLine
 10
366.0223337026074
 20
42.06128315129553
 30
0.0
 11
366.0223337026074
 21
37.95224986009553
 31
0.0
  0
LINE
  5
3210
330
3110
100
AcDbEntity
  8
0
100
AcDbLine
 10
366.3973337026074
 20
37.87624986009554
 30
0.0
 11
366.0223337026074
 21
37.87624986009554
 31
0.0
  0
LINE
  5
3211
330
3110
100
AcDbEntity
  8
0
100
AcDbLine
 10
366.0223337026074
 20
37.87624986009554
 30
0.0
 11
366.0223337026074
 21
37.95224986009553
 31
0.0
  0
LINE
  5
3212
330
3110
100
AcDbEntity
  8
0
100
AcDbLine
 10
366.5983337026073
 20
38.47568736009561
 30
0.0
 11
366.5983337026073
 21
38.85068736009561
 31
0.0
  0
LINE
  5
3213
330
3110
100
AcDbEntity
  8
0
100
AcDbLine
 10
366.5983337026073
 20
38.85068736009561
 30
0.0
 11
366.4733337026074
 21
38.85068736009561
 31
0.0
  0
LINE
  5
3214
330
3110
100
AcDbEntity
  8
0
100
AcDbLine
 10
366.5983337026073
 20
38.72568736009561
 30
0.0
 11
366.4733337026074
 21
38.72568736009561
 31
0.0
  0
LINE
  5
3215
330
3110
100
AcDbEntity
  8
0
100
AcDbLine
 10
366.4733337026074
 20
38.85068736009561
 30
0.0
 11
366.4733337026074
 21
38.47568736009561
 31
0.0
  0
LINE
  5
3216
330
3110
100
AcDbEntity
  8
0
100
AcDbLine
 10
366.4733337026074
 20
38.47568736009561
 30
0.0
 11
366.5983337026073
 21
38.47568736009561
 31
0.0
  0
LINE
  5
3217
330
3110
100
AcDbEntity
  8
0
100
AcDbLine
 10
366.4733337026074
 20
38.60068736009561
 30
0.0
 11
366.5983337026073
 21
38.60068736009561
 31
0.0
  0
LINE
  5
3218
330
3110
100
AcDbEntity
  8
0
100
AcDbLine
 10
365.9598337026074
 20
38.53818736009561
 30
0.0
 11
365.9598337026074
 21
38.78818736009561
 31
0.0
  0
LINE
  5
3219
330
3110
100
AcDbEntity
  8
0
100
AcDbLine
 10
365.9598337026074
 20
38.78818736009561
 30
0.0
 11
366.2879587026074
 21
38.78818736009561
 31
0.0
  0
LINE
  5
321A
330
3110
100
AcDbEntity
  8
0
100
AcDbLine
 10
366.3192087026074
 20
38.78818736009561
 30
0.0
 11
366.3973337026074
 21
38.78818736009561
 31
0.0
  0
LINE
  5
321B
330
3110
100
AcDbEntity
  8
0
100
AcDbLine
 10
366.3973337026074
 20
38.78818736009561
 30
0.0
 11
366.3973337026074
 21
38.53818736009561
 31
0.0
  0
LINE
  5
321C
330
3110
100
AcDbEntity
  8
0
100
AcDbLine
 10
366.3973337026074
 20
38.53818736009561
 30
0.0
 11
366.3192087026074
 21
38.53818736009561
 31
0.0
  0
LINE
  5
321D
330
3110
100
AcDbEntity
  8
0
100
AcDbLine
 10
366.2879587026074
 20
38.53818736009561
 30
0.0
 11
365.9598337026074
 21
38.53818736009561
 31
0.0
  0
LINE
  5
321E
330
3110
100
AcDbEntity
  8
0
100
AcDbLine
 10
366.0223337026074
 20
38.53818736009561
 30
0.0
 11
366.0223337026074
 21
38.78818736009561
 31
0.0
  0
LINE
  5
321F
330
3110
100
AcDbEntity
  8
0
100
AcDbLine
 10
366.0848337026074
 20
38.53818736009561
 30
0.0
 11
366.0848337026074
 21
38.78818736009561
 31
0.0
  0
LINE
  5
3220
330
3110
100
AcDbEntity
  8
0
100
AcDbLine
 10
366.1473337026074
 20
38.53818736009561
 30
0.0
 11
366.1473337026074
 21
38.78818736009561
 31
0.0
  0
LINE
  5
3221
330
3110
100
AcDbEntity
  8
0
100
AcDbLine
 10
366.2098337026074
 20
38.53818736009561
 30
0.0
 11
366.2098337026074
 21
38.78818736009561
 31
0.0
  0
LINE
  5
3222
330
3110
100
AcDbEntity
  8
0
100
AcDbLine
 10
366.2723337026074
 20
38.53818736009561
 30
0.0
 11
366.2723337026074
 21
38.78818736009561
 31
0.0
  0
LINE
  5
3223
330
3110
100
AcDbEntity
  8
0
100
AcDbLine
 10
366.3348337026074
 20
38.53818736009561
 30
0.0
 11
366.3348337026074
 21
38.78818736009561
 31
0.0
  0
LINE
  5
3224
330
3110
100
AcDbEntity
  8
0
100
AcDbLine
 10
366.2879587026074
 20
38.47568736009561
 30
0.0
 11
366.2879587026074
 21
38.85068736009561
 31
0.0
  0
LINE
  5
3225
330
3110
100
AcDbEntity
  8
0
100
AcDbLine
 10
366.2879587026074
 20
38.85068736009561
 30
0.0
 11
366.3192087026074
 21
38.85068736009561
 31
0.0
  0
LINE
  5
3226
330
3110
100
AcDbEntity
  8
0
100
AcDbLine
 10
366.3192087026074
 20
38.85068736009561
 30
0.0
 11
366.3192087026074
 21
38.47568736009561
 31
0.0
  0
LINE
  5
3227
330
3110
100
AcDbEntity
  8
0
100
AcDbLine
 10
366.3192087026074
 20
38.47568736009561
 30
0.0
 11
366.2879587026074
 21
38.47568736009561
 31
0.0
  0
LINE
  5
3228
330
3110
100
AcDbEntity
  8
0
100
AcDbLine
 10
366.5233337026074
 20
38.78243499849683
 30
0.0
 11
366.5233337026074
 21
43.18876650569553
 31
0.0
  0
LINE
  5
3229
330
3110
100
AcDbEntity
  8
0
100
AcDbLine
 10
369.2421337026074
 20
40.36876650569554
 30
0.0
 11
368.9571337026074
 21
40.36876650569554
 31
0.0
  0
LINE
  5
322A
330
3110
100
AcDbEntity
  8
0
100
AcDbLine
 10
366.9433337026073
 20
43.19876650569552
 30
0.0
 11
366.9433337026073
 21
43.24876650569553
 31
0.0
  0
LINE
  5
322B
330
3110
100
AcDbEntity
  8
0
100
AcDbLine
 10
366.9433337026073
 20
38.93424100369857
 30
0.0
 11
366.9433337026073
 21
43.19876650569552
 31
0.0
  0
LINE
  5
322C
330
3110
100
AcDbEntity
  8
0
100
AcDbLine
 10
368.2733337026074
 20
38.78233577070896
 30
0.0
 11
368.2733337026074
 21
43.18876650569553
 31
0.0
  0
LINE
  5
322D
330
3110
100
AcDbEntity
  8
0
100
AcDbLine
 10
367.8533337026073
 20
43.19876650569552
 30
0.0
 11
367.8533337026073
 21
43.24876650569553
 31
0.0
  0
LINE
  5
322E
330
3110
100
AcDbEntity
  8
0
100
AcDbLine
 10
368.3567337026074
 20
40.12476650569554
 30
0.0
 11
368.3567337026074
 21
40.36876650569554
 31
0.0
  0
LINE
  5
322F
330
3110
100
AcDbEntity
  8
0
100
AcDbLine
 10
368.6865337026073
 20
40.36876650569554
 30
0.0
 11
368.3567337026074
 21
40.36876650569554
 31
0.0
  0
ELLIPSE
  5
3230
330
3110
100
AcDbEntity
  8
0
100
AcDbEllipse
 10
368.2885678186074
 20
40.20495949609552
 30
0.0
 11
0.0
 21
0.020000000000009
 31
0.0
210
0.0
220
0.0
230
-1.0
 40
0.7651191327
 41
4.712388980384689
 42
6.283185307179585
  0
LINE
  5
3231
330
3110
100
AcDbEntity
  8
0
100
AcDbLine
 10
366.4733337026074
 20
38.75673559417209
 30
0.0
 11
366.4733337026074
 21
43.30876650569553
 31
0.0
  0
LINE
  5
3232
330
3110
100
AcDbEntity
  8
0
100
AcDbLine
 10
369.3895337026074
 20
40.29876650569551
 30
0.0
 11
368.9181337026074
 21
40.52296650569554
 31
0.0
  0
LINE
  5
3233
330
3110
100
AcDbEntity
  8
0
100
AcDbLine
 10
369.3895337026074
 20
40.49136650569551
 30
0.0
 11
368.9181337026074
 21
40.71556650569553
 31
0.0
  0
LINE
  5
3234
330
3110
100
AcDbEntity
  8
0
100
AcDbLine
 10
369.3895337026074
 20
40.37516650569553
 30
0.0
 11
368.9181337026074
 21
40.59936650569552
 31
0.0
  0
LINE
  5
3235
330
3110
100
AcDbEntity
  8
0
100
AcDbLine
 10
366.4733337026074
 20
43.30876650569553
 30
0.0
 11
366.5233337026074
 21
43.30876650569553
 31
0.0
  0
LINE
  5
3236
330
3110
100
AcDbEntity
  8
0
100
AcDbLine
 10
366.5233337026074
 20
43.18876650569553
 30
0.0
 11
366.5233337026074
 21
43.30876650569553
 31
0.0
  0
LINE
  5
3237
330
3110
100
AcDbEntity
  8
0
100
AcDbLine
 10
367.8533337026073
 20
38.93419349529864
 30
0.0
 11
367.8533337026073
 21
43.19876650569552
 31
0.0
  0
LINE
  5
3238
330
3110
100
AcDbEntity
  8
0
100
AcDbLine
 10
368.3567337026074
 20
41.49516650569553
 30
0.0
 11
368.2885337026074
 21
41.49516650569553
 31
0.0
  0
ELLIPSE
  5
3239
330
3110
100
AcDbEntity
  8
0
100
AcDbEllipse
 10
368.4025878056074
 20
41.32078623449554
 30
0.0
 11
0.0
 21
-0.0599999999999966
 31
0.0
210
0.0
220
0.0
230
-1.0
 40
0.7651191327
 41
0.3490658503988879
 42
1.570796326794896
  0
LINE
  5
323A
330
3110
100
AcDbEntity
  8
0
100
AcDbLine
 10
368.3869337026074
 20
41.26436650569554
 30
0.0
 11
368.6865337026073
 21
41.12196650569553
 31
0.0
  0
LINE
  5
323B
330
3110
100
AcDbEntity
  8
0
100
AcDbLine
 10
368.6901337026073
 20
41.64356650569554
 30
0.0
 11
368.5547337026073
 21
41.64356650569554
 31
0.0
  0
LINE
  5
323C
330
3110
100
AcDbEntity
  8
0
100
AcDbLine
 10
368.7845337026074
 20
41.36116650569554
 30
0.0
 11
368.6865337026073
 21
41.36116650569554
 31
0.0
  0
LINE
  5
323D
330
3110
100
AcDbEntity
  8
0
100
AcDbLine
 10
368.8793337026074
 20
41.84536650569553
 30
0.0
 11
368.8793337026074
 21
41.65716650569553
 31
0.0
  0
LINE
  5
323E
330
3110
100
AcDbEntity
  8
0
100
AcDbLine
 10
368.9181337026074
 20
41.20876650569554
 30
0.0
 11
368.7845337026074
 21
41.36116650569554
 31
0.0
  0
LINE
  5
323F
330
3110
100
AcDbEntity
  8
0
100
AcDbLine
 10
368.9181337026074
 20
41.01156650569553
 30
0.0
 11
369.3895337026074
 21
40.78736650569553
 31
0.0
  0
LINE
  5
3240
330
3110
100
AcDbEntity
  8
0
100
AcDbLine
 10
368.7601337026074
 20
41.40036650569554
 30
0.0
 11
369.3895337026074
 21
41.10096650569551
 31
0.0
  0
ELLIPSE
  5
3241
330
3110
100
AcDbEntity
  8
0
100
AcDbEllipse
 10
369.4048165440074
 20
41.60579870069552
 30
0.0
 11
0.0
 21
0.0199999999999938
 31
0.0
210
0.0
220
0.0
230
-0.9999999999999998
 40
0.7651191327
 41
4.712388980384689
 42
6.283185307179585
  0
LINE
  5
3242
330
3110
100
AcDbEntity
  8
0
100
AcDbLine
 10
369.3895337026074
 20
41.56616650569552
 30
0.0
 11
369.4663337026073
 21
41.56616650569552
 31
0.0
  0
LINE
  5
3243
330
3110
100
AcDbEntity
  8
0
100
AcDbLine
 10
369.4047337026074
 20
41.62576650569551
 30
0.0
 11
369.4663337026073
 21
41.62576650569551
 31
0.0
  0
LINE
  5
3244
330
3110
100
AcDbEntity
  8
0
100
AcDbLine
 10
369.4663337026073
 20
41.43556650569554
 30
0.0
 11
369.3895337026074
 21
41.43556650569554
 31
0.0
  0
LINE
  5
3245
330
3110
100
AcDbEntity
  8
0
100
AcDbLine
 10
369.4663337026073
 20
41.15976650569553
 30
0.0
 11
369.3895337026074
 21
41.15976650569553
 31
0.0
  0
LINE
  5
3246
330
3110
100
AcDbEntity
  8
0
100
AcDbLine
 10
369.2303337026074
 20
40.12476650569554
 30
0.0
 11
369.3895337026074
 21
40.12476650569554
 31
0.0
  0
LINE
  5
3247
330
3110
100
AcDbEntity
  8
0
100
AcDbLine
 10
368.3567337026074
 20
40.22496650569554
 30
0.0
 11
368.2885337026074
 21
40.22496650569554
 31
0.0
  0
LINE
  5
3248
330
3110
100
AcDbEntity
  8
0
100
AcDbLine
 10
368.2733337026074
 20
40.12476650569554
 30
0.0
 11
368.5451337026074
 21
40.12476650569554
 31
0.0
  0
ARC
  5
3249
330
3110
100
AcDbEntity
  8
0
100
AcDbCircle
 10
368.5835277952074
 20
41.58966135249552
 30
0.0
 40
0.0610583334
100
AcDbArc
 50
118.0724872488006
 51
143.6711566931991
  0
ARC
  5
324A
330
3110
100
AcDbEntity
  8
0
100
AcDbCircle
 10
368.6614111286074
 20
41.58966135249552
 30
0.0
 40
0.0610583334
100
AcDbArc
 50
298.0724880641993
 51
61.92751306410102
  0
ARC
  5
324B
330
3110
100
AcDbEntity
  8
0
100
AcDbCircle
 10
368.8551963832074
 20
41.72065172129553
 30
0.0
 40
0.3341342318
100
AcDbArc
 50
174.7395373276993
 51
253.4623595499019
  0
ARC
  5
324C
330
3110
100
AcDbEntity
  8
0
100
AcDbCircle
 10
368.6614111286074
 20
41.91291135249552
 30
0.0
 40
0.0610583334
100
AcDbArc
 50
298.0724880640995
 51
61.92751306410102
  0
ARC
  5
324D
330
3110
100
AcDbEntity
  8
0
100
AcDbCircle
 10
366.5832654358073
 20
43.18878383169553
 30
0.0
 40
0.06
100
AcDbArc
 50
90.0
 51
180.0
  0
ARC
  5
324E
330
3110
100
AcDbEntity
  8
0
100
AcDbCircle
 10
368.2132654358073
 20
43.18878383169553
 30
0.0
 40
0.06
100
AcDbArc
 50
0.0
 51
90.0
  0
LINE
  5
324F
330
3110
100
AcDbEntity
  8
0
100
AcDbLine
 10
366.9433337026073
 20
43.19876650569552
 30
0.0
 11
367.8533337026073
 21
43.19876650569552
 31
0.0
  0
LINE
  5
3250
330
3110
100
AcDbEntity
  8
0
100
AcDbLine
 10
366.5833337026074
 20
43.24876650569553
 30
0.0
 11
366.9433337026073
 21
43.24876650569553
 31
0.0
  0
SPLINE
  5
3251
330
3110
100
AcDbEntity
  8
0
100
AcDbSpline
210
0.0
220
0.0
230
1.0
 70
    12
 71
     3
 72
    11
 73
     7
 74
     0
 42
0.0000000001
 43
0.0000000001
 40
0.0
 40
0.0
 40
0.0
 40
0.0
 40
0.1602878711001425
 40
0.1602878711001425
 40
0.1602878711001425
 40
1.0
 40
1.0
 40
1.0
 40
1.0
 10
368.9475337026079
 20
40.27836650569569
 30
0.0
 41
0.9981854115604356
 10
368.9612705993612
 20
40.26916411854979
 30
0.0
 41
0.9987036835706653
 10
368.9752052589271
 20
40.260096748399
 30
0.0
 41
0.9993085463838536
 10
368.9893337026074
 20
40.25116650569553
 30
0.0
 41
1.0
 10
369.0632297615617
 20
40.20483167953986
 30
0.0
 41
0.9971986521643268
 10
369.1436159157106
 20
40.16266393423255
 30
0.0
 41
0.9967464228766411
 10
369.2299337026069
 20
40.12496650569542
 30
0.0
 41
0.9986433121369422
  0
ARC
  5
3252
330
3110
100
AcDbEntity
  8
0
100
AcDbCircle
 10
369.3750911676074
 20
39.48247991749552
 30
0.0
 40
0.6585949001999999
100
AcDbArc
 50
102.7354876266997
 51
130.4743515155992
  0
SPLINE
  5
3253
330
3110
100
AcDbEntity
  8
0
100
AcDbSpline
210
0.0
220
0.0
230
1.0
 70
    12
 71
     3
 72
    11
 73
     7
 74
     0
 42
0.0000000001
 43
0.0000000001
 40
0.0
 40
0.0
 40
0.0
 40
0.0
 40
0.8579928259635311
 40
0.8579928259635311
 40
0.8579928259635311
 40
1.0
 40
1.0
 40
1.0
 40
1.0
 10
368.5915337026074
 20
40.06756650569552
 30
0.0
 41
1.0
 10
368.6137306889544
 20
40.12060002397436
 30
0.0
 41
0.9937802165096844
 10
368.6402073533969
 20
40.17054261058945
 30
0.0
 41
0.9887460569488254
 10
368.6709337026073
 20
40.21716650569552
 30
0.0
 41
0.9848975213174233
 10
368.6760002878274
 20
40.22489971471561
 30
0.0
 41
0.9848658579020755
 10
368.6812004550073
 20
40.23249995905546
 30
0.0
 41
0.9848658579020755
 10
368.6865337026073
 20
40.23996650569555
 30
0.0
 41
0.9848975213174233
  0
LINE
  5
3254
330
3110
100
AcDbEntity
  8
0
100
AcDbLine
 10
368.7965337026073
 20
41.79836650569553
 30
0.0
 11
368.7965337026073
 21
41.70436650569554
 31
0.0
  0
SPLINE
  5
3255
330
3110
100
AcDbEntity
  8
0
100
AcDbSpline
210
0.0
220
0.0
230
1.0
 70
    12
 71
     3
 72
     8
 73
     4
 74
     0
 42
0.0000000001
 43
0.0000000001
 40
0.0
 40
0.0
 40
0.0
 40
0.0
 40
1.0
 40
1.0
 40
1.0
 40
1.0
 10
368.6865337026073
 20
41.10156650569553
 30
0.0
 41
1.0
 10
368.6813337026074
 20
41.11076650569553
 30
0.0
 41
1.0
 10
368.6761337026073
 20
41.11996650569552
 30
0.0
 41
1.0
 10
368.6709337026074
 20
41.12936650569552
 30
0.0
 41
1.0
  0
SPLINE
  5
3256
330
3110
100
AcDbEntity
  8
0
100
AcDbSpline
210
0.0
220
0.0
230
1.0
 70
    12
 71
     3
 72
     8
 73
     4
 74
     0
 42
0.0000000001
 43
0.0000000001
 40
0.0
 40
0.0
 40
0.0
 40
0.0
 40
1.0
 40
1.0
 40
1.0
 40
1.0
 10
368.6915337026073
 20
41.04596650569553
 30
0.0
 41
1.0
 10
368.6711337026074
 20
41.07856650569554
 30
0.0
 41
1.0
 10
368.6491337026074
 20
41.11336650569553
 30
0.0
 41
1.0
 10
368.6253337026073
 20
41.15096650569553
 30
0.0
 41
1.0
  0
LINE
  5
3257
330
3110
100
AcDbEntity
  8
0
100
AcDbLine
 10
368.5915337026074
 20
40.87616650569553
 30
0.0
 11
368.5625337026074
 21
40.87516650569552
 31
0.0
  0
SPLINE
  5
3258
330
3110
100
AcDbEntity
  8
0
100
AcDbSpline
210
0.0
220
0.0
230
1.0
 70
    12
 71
     3
 72
     8
 73
     4
 74
     0
 42
0.0000000001
 43
0.0000000001
 40
0.0
 40
0.0
 40
0.0
 40
0.0
 40
1.0
 40
1.0
 40
1.0
 40
1.0
 10
368.5915337026074
 20
40.87616650569553
 30
0.0
 41
1.0
 10
368.6175129204642
 20
40.92639299355222
 30
0.0
 41
0.9984039251374719
 10
368.6492302102997
 20
40.97093074580566
 30
0.0
 41
0.9984039251374719
 10
368.6865337026073
 20
41.00956650569552
 30
0.0
 41
1.0
  0
SPLINE
  5
3259
330
3110
100
AcDbEntity
  8
0
100
AcDbSpline
210
0.0
220
0.0
230
1.0
 70
    12
 71
     3
 72
     8
 73
     4
 74
     0
 42
0.0000000001
 43
0.0000000001
 40
0.0
 40
0.0
 40
0.0
 40
0.0
 40
1.0
 40
1.0
 40
1.0
 40
1.0
 10
368.5625337026074
 20
40.87516650569552
 30
0.0
 41
1.0
 10
368.594894802052
 20
40.93895649184355
 30
0.0
 41
0.9976044834269851
 10
368.6363273878313
 20
40.99442269538667
 30
0.0
 41
0.9976044834269851
 10
368.6865337026073
 20
41.04116650569552
 30
0.0
 41
1.0
  0
SPLINE
  5
325A
330
3110
100
AcDbEntity
  8
0
100
AcDbSpline
210
0.0
220
0.0
230
1.0
 70
    12
 71
     3
 72
     8
 73
     4
 74
     0
 42
0.0000000001
 43
0.0000000001
 40
0.0
 40
0.0
 40
0.0
 40
0.0
 40
1.0
 40
1.0
 40
1.0
 40
1.0
 10
368.6865337026073
 20
40.75556650569553
 30
0.0
 41
1.0
 10
368.6575337026074
 20
40.79216650569552
 30
0.0
 41
1.0
 10
368.6259337026074
 20
40.83216650569552
 30
0.0
 41
1.0
 10
368.5915337026074
 20
40.87616650569553
 30
0.0
 41
1.0
  0
LINE
  5
325B
330
3110
100
AcDbEntity
  8
0
100
AcDbLine
 10
368.5915337026074
 20
40.70856650569553
 30
0.0
 11
368.5625337026074
 21
40.68776650569552
 31
0.0
  0
SPLINE
  5
325C
330
3110
100
AcDbEntity
  8
0
100
AcDbSpline
210
0.0
220
0.0
230
1.0
 70
    12
 71
     3
 72
     8
 73
     4
 74
     0
 42
0.0000000001
 43
0.0000000001
 40
0.0
 40
0.0
 40
0.0
 40
0.0
 40
1.0
 40
1.0
 40
1.0
 40
1.0
 10
368.6865337026073
 20
40.71456650569554
 30
0.0
 41
1.0
 10
368.6501337026074
 20
40.76156650569553
 30
0.0
 41
1.0
 10
368.6089337026074
 20
40.81476650569554
 30
0.0
 41
1.0
 10
368.5625337026074
 20
40.87516650569552
 30
0.0
 41
1.0
  0
SPLINE
  5
325D
330
3110
100
AcDbEntity
  8
0
100
AcDbSpline
210
0.0
220
0.0
230
1.0
 70
    12
 71
     3
 72
     8
 73
     4
 74
     0
 42
0.0000000001
 43
0.0000000001
 40
0.0
 40
0.0
 40
0.0
 40
0.0
 40
1.0
 40
1.0
 40
1.0
 40
1.0
 10
368.6865337026073
 20
40.63256650569554
 30
0.0
 41
1.0
 10
368.6575337026074
 20
40.65596650569552
 30
0.0
 41
1.0
 10
368.6259337026074
 20
40.68116650569553
 30
0.0
 41
1.0
 10
368.5915337026074
 20
40.70856650569553
 30
0.0
 41
1.0
  0
SPLINE
  5
325E
330
3110
100
AcDbEntity
  8
0
100
AcDbSpline
210
0.0
220
0.0
230
1.0
 70
    12
 71
     3
 72
     8
 73
     4
 74
     0
 42
0.0000000001
 43
0.0000000001
 40
0.0
 40
0.0
 40
0.0
 40
0.0
 40
1.0
 40
1.0
 40
1.0
 40
1.0
 10
368.6865337026073
 20
40.59016650569552
 30
0.0
 41
1.0
 10
368.6501337026074
 20
40.61896650569551
 30
0.0
 41
1.0
 10
368.6089337026074
 20
40.65096650569553
 30
0.0
 41
1.0
 10
368.5625337026074
 20
40.68776650569552
 30
0.0
 41
1.0
  0
SPLINE
  5
325F
330
3110
100
AcDbEntity
  8
0
100
AcDbSpline
210
0.0
220
0.0
230
1.0
 70
    12
 71
     3
 72
    11
 73
     7
 74
     0
 42
0.0000000001
 43
0.0000000001
 40
0.0
 40
0.0
 40
0.0
 40
0.0
 40
0.8746570580986594
 40
0.8746570580986594
 40
0.8746570580986594
 40
1.0
 40
1.0
 40
1.0
 40
1.0
 10
368.5625337026074
 20
40.68776650569552
 30
0.0
 41
1.0
 10
368.5906898941801
 20
40.63291505701912
 30
0.0
 41
0.9922439918506784
 10
368.6259134663267
 20
40.57973850093369
 30
0.0
 41
0.9863316098474887
 10
368.6681337026074
 20
40.52856650569554
 30
0.0
 41
0.9822628539904311
 10
368.6741335898971
 20
40.52123331011961
 30
0.0
 41
0.9822259515751582
 10
368.6802671536611
 20
40.51396637044294
 30
0.0
 41
0.9822259515751582
 10
368.6865337026073
 20
40.50676650569552
 30
0.0
 41
0.9822628539904311
  0
SPLINE
  5
3260
330
3110
100
AcDbEntity
  8
0
100
AcDbSpline
210
0.0
220
0.0
230
1.0
 70
    12
 71
     3
 72
     8
 73
     4
 74
     0
 42
0.0000000001
 43
0.0000000001
 40
0.0
 40
0.0
 40
0.0
 40
0.0
 40
1.0
 40
1.0
 40
1.0
 40
1.0
 10
369.0705337026074
 20
40.93916650569552
 30
0.0
 41
1.0
 10
369.0167337026074
 20
40.85296650569552
 30
0.0
 41
1.0
 10
368.9777337026074
 20
40.76676650569553
 30
0.0
 41
1.0
 10
368.9593337026074
 20
40.69616650569552
 30
0.0
 41
1.0
  0
SPLINE
  5
3261
330
3110
100
AcDbEntity
  8
0
100
AcDbSpline
210
0.0
220
0.0
230
1.0
 70
    12
 71
     3
 72
     8
 73
     4
 74
     0
 42
0.0000000001
 43
0.0000000001
 40
0.0
 40
0.0
 40
0.0
 40
0.0
 40
1.0
 40
1.0
 40
1.0
 40
1.0
 10
369.2401337026074
 20
40.85856650569554
 30
0.0
 41
1.0
 10
369.1815337026073
 20
40.77696650569553
 30
0.0
 41
1.0
 10
369.1289337026073
 20
40.70236650569553
 30
0.0
 41
1.0
 10
369.0847337026074
 20
40.63636650569552
 30
0.0
 41
1.0
  0
SPLINE
  5
3262
330
3110
100
AcDbEntity
  8
0
100
AcDbSpline
210
0.0
220
0.0
230
1.0
 70
    12
 71
     3
 72
    14
 73
    10
 74
     0
 42
0.0000000001
 43
0.0000000001
 40
0.0
 40
0.0
 40
0.0
 40
0.0
 40
0.1422291105344096
 40
0.1422291105344096
 40
0.1422291105344096
 40
0.8032207483440734
 40
0.8032207483440734
 40
0.8032207483440734
 40
1.0
 40
1.0
 40
1.0
 40
1.0
 10
368.9181337026074
 20
40.46376650569554
 30
0.0
 41
1.0
 10
368.9206665494442
 20
40.46536619843441
 30
0.0
 41
0.9996160709607801
 10
368.9231998914684
 20
40.46703284544263
 30
0.0
 41
0.9992356432287808
 10
368.9257337026077
 20
40.46876650569561
 30
0.0
 41
0.9988587168040028
 10
368.9376021925278
 20
40.47623431957758
 30
0.0
 41
0.9991657502634911
 10
368.9496698206466
 20
40.48350144326142
 30
0.0
 41
0.9995461779954904
 10
368.9619337026074
 20
40.49056650569552
 30
0.0
 41
1.0
 10
368.9655336909115
 20
40.49269983209783
 30
0.0
 41
0.9999935021623937
 10
368.9692003814037
 20
40.49476651219346
 30
0.0
 41
0.999993502162394
 10
368.9729337026074
 20
40.49676650569552
 30
0.0
 41
1.0
  0
LINE
  5
3263
330
3110
100
AcDbEntity
  8
0
100
AcDbLine
 10
368.6773337026074
 20
40.28216650569553
 30
0.0
 11
368.5451337026074
 21
40.28216650569553
 31
0.0
  0
SPLINE
  5
3264
330
3110
100
AcDbEntity
  8
0
100
AcDbSpline
210
0.0
220
0.0
230
1.0
 70
    12
 71
     3
 72
     8
 73
     4
 74
     0
 42
0.0000000001
 43
0.0000000001
 40
0.0
 40
0.0
 40
0.0
 40
0.0
 40
1.0
 40
1.0
 40
1.0
 40
1.0
 10
369.2641337026074
 20
40.64136650569552
 30
0.0
 41
1.0
 10
369.2197337026073
 20
40.63676650569553
 30
0.0
 41
1.0
 10
369.1779337026073
 20
40.62576650569551
 30
0.0
 41
1.0
 10
369.1397337026074
 20
40.61036650569551
 30
0.0
 41
1.0
  0
SPLINE
  5
3265
330
3110
100
AcDbEntity
  8
0
100
AcDbSpline
210
0.0
220
0.0
230
1.0
 70
    12
 71
     3
 72
     8
 73
     4
 74
     0
 42
0.0000000001
 43
0.0000000001
 40
0.0
 40
0.0
 40
0.0
 40
0.0
 40
1.0
 40
1.0
 40
1.0
 40
1.0
 10
369.1435337026073
 20
40.60836650569553
 30
0.0
 41
1.0
 10
369.1824570553141
 20
40.62129652354673
 30
0.0
 41
0.9994875593108531
 10
369.2226776659914
 20
40.63230216328436
 30
0.0
 41
0.9994875593108531
 10
369.2641337026074
 20
40.64136650569552
 30
0.0
 41
1.0
  0
LINE
  5
3266
330
3110
100
AcDbEntity
  8
0
100
AcDbLine
 10
369.2709337026074
 20
40.60536650569551
 30
0.0
 11
369.2641337026074
 21
40.64136650569552
 31
0.0
  0
SPLINE
  5
3267
330
3110
100
AcDbEntity
  8
0
100
AcDbSpline
210
0.0
220
0.0
230
1.0
 70
    12
 71
     3
 72
    11
 73
     7
 74
     0
 42
0.0000000001
 43
0.0000000001
 40
0.0
 40
0.0
 40
0.0
 40
0.0
 40
0.2502389183501894
 40
0.2502389183501894
 40
0.2502389183501894
 40
1.0
 40
1.0
 40
1.0
 40
1.0
 10
369.1907337026074
 20
40.58596650569553
 30
0.0
 41
1.0
 10
369.1972605069819
 20
40.58783130694532
 30
0.0
 41
0.9980053255946092
 10
369.2038604800649
 20
40.58963146783456
 30
0.0
 41
0.9960285125592235
 10
369.2105337026076
 20
40.59136650569561
 30
0.0
 41
0.9940695608938435
 10
369.2304187205058
 20
40.59657130903807
 30
0.0
 41
0.9959094432784445
 10
369.2505553084625
 20
40.60123755001908
 30
0.0
 41
0.9978862563138296
 10
369.2709337026074
 20
40.60536650569551
 30
0.0
 41
1.0
  0
LINE
  5
3268
330
3110
100
AcDbEntity
  8
0
100
AcDbLine
 10
368.5915337026074
 20
40.06756650569552
 30
0.0
 11
368.5625337026074
 21
40.07976650569552
 31
0.0
  0
LWPOLYLINE
  5
3269
330
3110
100
AcDbEntity
  8
0
100
AcDbPolyline
 90
        6
 70
     0
 43
0.0
 10
369.0143337026074
 20
40.47716650569553
 10
368.9897337026074
 20
40.44276650569552
 10
368.9699337026074
 20
40.40436650569552
 10
368.9571337026074
 20
40.36856650569553
 10
368.9545337026074
 20
40.35916650569553
 10
368.9469337026074
 20
40.31856650569552
  0
SPLINE
  5
326A
330
3110
100
AcDbEntity
  8
0
100
AcDbSpline
210
0.0
220
0.0
230
1.0
 70
    12
 71
     3
 72
     8
 73
     4
 74
     0
 42
0.0000000001
 43
0.0000000001
 40
0.0
 40
0.0
 40
0.0
 40
0.0
 40
1.0
 40
1.0
 40
1.0
 40
1.0
 10
368.5625337026074
 20
40.07976650569552
 30
0.0
 41
1.0
 10
368.594894802052
 20
40.15807237595652
 30
0.0
 41
0.9976044834269851
 10
368.6363273878313
 20
40.22971065330383
 30
0.0
 41
0.9976044834269851
 10
368.6865337026073
 20
40.29416650569554
 30
0.0
 41
1.0
  0
SPLINE
  5
326B
330
3110
100
AcDbEntity
  8
0
100
AcDbSpline
210
0.0
220
0.0
230
1.0
 70
    12
 71
     3
 72
    11
 73
     7
 74
     0
 42
0.0000000001
 43
0.0000000001
 40
0.0
 40
0.0
 40
0.0
 40
0.0
 40
0.1453468679195954
 40
0.1453468679195954
 40
0.1453468679195954
 40
1.0
 40
1.0
 40
1.0
 40
1.0
 10
368.6865337026073
 20
40.03976650569553
 30
0.0
 41
1.0
 10
368.6823337026074
 20
40.04096650569554
 30
0.0
 41
1.0
 10
368.6779337026073
 20
40.04216650569552
 30
0.0
 41
1.0
 10
368.6737337026074
 20
40.04336650569554
 30
0.0
 41
1.0
 10
368.6481337026074
 20
40.05076650569552
 30
0.0
 41
1.0
 10
368.6209337026074
 20
40.05876650569553
 30
0.0
 41
1.0
 10
368.5915337026074
 20
40.06756650569552
 30
0.0
 41
1.0
  0
LINE
  5
326C
330
3110
100
AcDbEntity
  8
0
100
AcDbLine
 10
368.2133337026074
 20
43.24876650569553
 30
0.0
 11
367.8533337026073
 21
43.24876650569553
 31
0.0
  0
LINE
  5
326D
330
3110
100
AcDbEntity
  8
0
100
AcDbLine
 10
368.5769337026073
 20
41.53576650569553
 30
0.0
 11
368.6901337026073
 21
41.53576650569553
 31
0.0
  0
LINE
  5
326E
330
3110
100
AcDbEntity
  8
0
100
AcDbLine
 10
369.3895337026074
 20
41.55976650569554
 30
0.0
 11
368.8793337026074
 21
41.80236650569552
 31
0.0
  0
ELLIPSE
  5
326F
330
3110
100
AcDbEntity
  8
0
100
AcDbEllipse
 10
368.2885678186074
 20
41.51511000789552
 30
0.0
 11
0.0
 21
0.020000000000009
 31
0.0
210
0.0
220
0.0
230
-1.0
 40
0.7651191327
 41
3.141592653589792
 42
4.712388980384689
  0
LINE
  5
3270
330
3110
100
AcDbEntity
  8
0
100
AcDbLine
 10
368.7225337026074
 20
41.65716650569553
 30
0.0
 11
368.8793337026074
 21
41.65716650569553
 31
0.0
  0
LINE
  5
3271
330
3110
100
AcDbEntity
  8
0
100
AcDbLine
 10
368.7225337026074
 20
41.84536650569553
 30
0.0
 11
368.7225337026074
 21
41.65716650569553
 31
0.0
  0
ARC
  5
3272
330
3110
100
AcDbEntity
  8
0
100
AcDbCircle
 10
368.7182152952074
 20
41.75128635249553
 30
0.0
 40
0.1957458333999999
100
AcDbArc
 50
146.60151068
 51
213.3984884578025
  0
LINE
  5
3273
330
3110
100
AcDbEntity
  8
0
100
AcDbLine
 10
368.7225337026074
 20
41.84536650569553
 30
0.0
 11
368.8793337026074
 21
41.84536650569553
 31
0.0
  0
LINE
  5
3274
330
3110
100
AcDbEntity
  8
0
100
AcDbLine
 10
368.7225337026074
 20
41.58956650569553
 30
0.0
 11
368.7225337026074
 21
41.91296650569553
 31
0.0
  0
ARC
  5
3275
330
3110
100
AcDbEntity
  8
0
100
AcDbCircle
 10
368.5267236286073
 20
41.75128635249553
 30
0.0
 40
0.1957458333999999
100
AcDbArc
 50
326.6015106800007
 51
33.39848845780148
  0
LINE
  5
3276
330
3110
100
AcDbEntity
  8
0
100
AcDbLine
 10
368.7225337026074
 20
41.87696650569552
 30
0.0
 11
368.7889337026074
 21
41.84536650569553
 31
0.0
  0
LINE
  5
3277
330
3110
100
AcDbEntity
  8
0
100
AcDbLine
 10
368.5547337026073
 20
41.85896650569552
 30
0.0
 11
368.6901337026073
 21
41.85896650569552
 31
0.0
  0
LINE
  5
3278
330
3110
100
AcDbEntity
  8
0
100
AcDbLine
 10
368.6901337026073
 20
41.96676650569552
 30
0.0
 11
368.5547337026073
 21
41.96676650569552
 31
0.0
  0
ARC
  5
3279
330
3110
100
AcDbEntity
  8
0
100
AcDbCircle
 10
368.5835277952074
 20
41.91291135249552
 30
0.0
 40
0.0610583334
100
AcDbArc
 50
118.0724880641991
 51
241.927513064101
  0
ELLIPSE
  5
327A
330
3110
100
AcDbEntity
  8
0
100
AcDbEllipse
 10
368.8500584162074
 20
42.26188459909551
 30
0.0
 11
0.0
 21
-0.4245115953737128
 31
0.0
210
0.0
220
0.0
230
-1.0
 40
0.7651191327
 41
0.8021710199159455
 42
1.476198220821233
  0
LINE
  5
327B
330
3110
100
AcDbEntity
  8
0
100
AcDbLine
 10
368.3567337026074
 20
42.18176650569552
 30
0.0
 11
368.3567337026074
 21
41.32076650569554
 31
0.0
  0
ELLIPSE
  5
327C
330
3110
100
AcDbEntity
  8
0
100
AcDbEllipse
 10
368.2885678186074
 20
41.98746269709551
 30
0.0
 11
0.0
 21
-0.020000000000009
 31
0.0
210
0.0
220
0.0
230
-1.0
 40
0.7651191327
 41
1.570796326794896
 42
3.141592653589792
  0
LINE
  5
327D
330
3110
100
AcDbEntity
  8
0
100
AcDbLine
 10
368.3567337026074
 20
42.00736650569553
 30
0.0
 11
368.2885337026074
 21
42.00736650569553
 31
0.0
  0
LINE
  5
327E
330
3110
100
AcDbEntity
  8
0
100
AcDbLine
 10
368.2733337026074
 20
41.98736650569553
 30
0.0
 11
368.2733337026074
 21
41.51516650569553
 31
0.0
  0
LINE
  5
327F
330
3110
100
AcDbEntity
  8
0
100
AcDbLine
 10
368.5225337026074
 20
41.75136650569553
 30
0.0
 11
368.5225337026074
 21
42.22176650569552
 31
0.0
  0
ELLIPSE
  5
3280
330
3110
100
AcDbEntity
  8
0
100
AcDbEllipse
 10
368.3872854230074
 20
42.18178647049553
 30
0.0
 11
0.0
 21
0.0400000000000072
 31
0.0
210
0.0
220
0.0
230
-1.0
 40
0.7651191327
 41
4.712388980384689
 42
6.283185307179585
  0
LINE
  5
3281
330
3110
100
AcDbEntity
  8
0
100
AcDbLine
 10
368.5225337026074
 20
42.22176650569552
 30
0.0
 11
368.3873337026074
 21
42.22176650569552
 31
0.0
  0
LINE
  5
3282
330
3110
100
AcDbEntity
  8
0
100
AcDbLine
 10
366.4733337026074
 20
42.98528315129554
 30
0.0
 11
366.4733337026074
 21
38.75673559417209
 31
0.0
  0
LINE
  5
3283
330
3110
100
AcDbEntity
  8
0
100
AcDbLine
 10
366.3973337026074
 20
38.71410592672604
 30
0.0
 11
366.3973337026074
 21
42.98528315129554
 31
0.0
  0
LINE
  5
3284
330
3110
100
AcDbEntity
  8
0
100
AcDbLine
 10
366.3973337026074
 20
42.98528315129554
 30
0.0
 11
366.4733337026074
 21
42.98528315129554
 31
0.0
  0
LINE
  5
3285
330
3110
100
AcDbEntity
  8
0
100
AcDbLine
 10
366.4733337026074
 20
41.66296650569552
 30
0.0
 11
366.5233337026074
 21
41.66296650569552
 31
0.0
  0
LINE
  5
3286
330
3110
100
AcDbEntity
  8
0
100
AcDbLine
 10
366.3973337026074
 20
41.41497065129545
 30
0.0
 11
366.4733337026074
 21
41.41497065129545
 31
0.0
  0
LINE
  5
3287
330
3110
100
AcDbEntity
  8
0
100
AcDbLine
 10
366.3973337026074
 20
41.13372065129545
 30
0.0
 11
366.4733337026074
 21
41.13372065129545
 31
0.0
  0
LINE
  5
3288
330
3110
100
AcDbEntity
  8
0
100
AcDbLine
 10
366.3973337026074
 20
42.06128315129553
 30
0.0
 11
366.0223337026074
 21
42.06128315129553
 31
0.0
  0
LINE
  5
3289
330
3110
100
AcDbEntity
  8
0
100
AcDbLine
 10
366.5983337026073
 20
41.46184565129545
 30
0.0
 11
366.5983337026073
 21
41.08684565129546
 31
0.0
  0
LINE
  5
328A
330
3110
100
AcDbEntity
  8
0
100
AcDbLine
 10
366.5983337026073
 20
41.08684565129546
 30
0.0
 11
366.4733337026074
 21
41.08684565129546
 31
0.0
  0
LINE
  5
328B
330
3110
100
AcDbEntity
  8
0
100
AcDbLine
 10
366.5983337026073
 20
41.21184565129545
 30
0.0
 11
366.4733337026074
 21
41.21184565129545
 31
0.0
  0
LINE
  5
328C
330
3110
100
AcDbEntity
  8
0
100
AcDbLine
 10
366.4733337026074
 20
41.08684565129546
 30
0.0
 11
366.4733337026074
 21
41.46184565129545
 31
0.0
  0
LINE
  5
328D
330
3110
100
AcDbEntity
  8
0
100
AcDbLine
 10
366.4733337026074
 20
41.46184565129545
 30
0.0
 11
366.5983337026073
 21
41.46184565129545
 31
0.0
  0
LINE
  5
328E
330
3110
100
AcDbEntity
  8
0
100
AcDbLine
 10
366.4733337026074
 20
41.33684565129545
 30
0.0
 11
366.5983337026073
 21
41.33684565129545
 31
0.0
  0
LINE
  5
328F
330
3110
100
AcDbEntity
  8
0
100
AcDbLine
 10
365.9598337026074
 20
41.39934565129546
 30
0.0
 11
365.9598337026074
 21
41.14934565129545
 31
0.0
  0
LINE
  5
3290
330
3110
100
AcDbEntity
  8
0
100
AcDbLine
 10
365.9598337026074
 20
41.14934565129545
 30
0.0
 11
366.2879587026074
 21
41.14934565129545
 31
0.0
  0
LINE
  5
3291
330
3110
100
AcDbEntity
  8
0
100
AcDbLine
 10
366.3192087026074
 20
41.14934565129545
 30
0.0
 11
366.3973337026074
 21
41.14934565129545
 31
0.0
  0
LINE
  5
3292
330
3110
100
AcDbEntity
  8
0
100
AcDbLine
 10
366.3973337026074
 20
41.14934565129545
 30
0.0
 11
366.3973337026074
 21
41.39934565129546
 31
0.0
  0
LINE
  5
3293
330
3110
100
AcDbEntity
  8
0
100
AcDbLine
 10
366.3973337026074
 20
41.39934565129546
 30
0.0
 11
366.3192087026074
 21
41.39934565129546
 31
0.0
  0
LINE
  5
3294
330
3110
100
AcDbEntity
  8
0
100
AcDbLine
 10
366.2879587026074
 20
41.39934565129546
 30
0.0
 11
365.9598337026074
 21
41.39934565129546
 31
0.0
  0
LINE
  5
3295
330
3110
100
AcDbEntity
  8
0
100
AcDbLine
 10
366.0223337026074
 20
41.39934565129546
 30
0.0
 11
366.0223337026074
 21
41.14934565129545
 31
0.0
  0
LINE
  5
3296
330
3110
100
AcDbEntity
  8
0
100
AcDbLine
 10
366.0848337026074
 20
41.39934565129546
 30
0.0
 11
366.0848337026074
 21
41.14934565129545
 31
0.0
  0
LINE
  5
3297
330
3110
100
AcDbEntity
  8
0
100
AcDbLine
 10
366.1473337026074
 20
41.39934565129546
 30
0.0
 11
366.1473337026074
 21
41.14934565129545
 31
0.0
  0
LINE
  5
3298
330
3110
100
AcDbEntity
  8
0
100
AcDbLine
 10
366.2098337026074
 20
41.39934565129546
 30
0.0
 11
366.2098337026074
 21
41.14934565129545
 31
0.0
  0
LINE
  5
3299
330
3110
100
AcDbEntity
  8
0
100
AcDbLine
 10
366.2723337026074
 20
41.39934565129546
 30
0.0
 11
366.2723337026074
 21
41.14934565129545
 31
0.0
  0
LINE
  5
329A
330
3110
100
AcDbEntity
  8
0
100
AcDbLine
 10
366.3348337026074
 20
41.39934565129546
 30
0.0
 11
366.3348337026074
 21
41.14934565129545
 31
0.0
  0
LINE
  5
329B
330
3110
100
AcDbEntity
  8
0
100
AcDbLine
 10
366.2879587026074
 20
41.46184565129545
 30
0.0
 11
366.2879587026074
 21
41.08684565129546
 31
0.0
  0
LINE
  5
329C
330
3110
100
AcDbEntity
  8
0
100
AcDbLine
 10
366.2879587026074
 20
41.08684565129546
 30
0.0
 11
366.3192087026074
 21
41.08684565129546
 31
0.0
  0
LINE
  5
329D
330
3110
100
AcDbEntity
  8
0
100
AcDbLine
 10
366.3192087026074
 20
41.08684565129546
 30
0.0
 11
366.3192087026074
 21
41.46184565129545
 31
0.0
  0
LINE
  5
329E
330
3110
100
AcDbEntity
  8
0
100
AcDbLine
 10
366.3192087026074
 20
41.46184565129545
 30
0.0
 11
366.2879587026074
 21
41.46184565129545
 31
0.0
  0
LINE
  5
329F
330
3110
100
AcDbEntity
  8
0
100
AcDbLine
 10
370.3697696048117
 20
36.55929368549556
 30
0.0
 11
370.3697696048118
 21
38.31176650569555
 31
0.0
  0
LINE
  5
32A0
330
3110
100
AcDbEntity
  8
0
100
AcDbLine
 10
370.3697696048118
 20
41.62576650569554
 30
0.0
 11
370.3697696048118
 21
42.55929368549556
 31
0.0
  0
LINE
  5
32A1
330
3110
100
AcDbEntity
  8
0
100
AcDbLine
 10
366.6961535546773
 20
36.55929368549556
 30
0.0
 11
366.6961535546773
 21
36.68876650569554
 31
0.0
  0
LINE
  5
32A2
330
3110
100
AcDbEntity
  8
0
100
AcDbLine
 10
375.3223337026073
 20
36.55929368549556
 30
0.0
 11
375.3223337026073
 21
42.55929368549555
 31
0.0
  0
ARC
  5
32A3
330
3110
100
AcDbEntity
  8
0
100
AcDbCircle
 10
368.629568672897
 20
37.92600289972344
 30
0.0
 40
0.4374999999999964
100
AcDbArc
 50
215.4865947512873
 51
36.18595019462293
  0
ARC
  5
32A4
330
3110
100
AcDbEntity
  8
0
100
AcDbCircle
 10
368.629568672897
 20
37.92600289972344
 30
0.0
 40
0.2874999999999965
100
AcDbArc
 50
226.9918784661632
 51
35.30721333310508
  0
ARC
  5
32A5
330
3110
100
AcDbEntity
  8
0
100
AcDbCircle
 10
368.6246994725628
 20
39.55929368549556
 30
0.0
 40
0.5749999999999998
100
AcDbArc
 50
232.3330233409961
 51
268.4810773748841
  0
ARC
  5
32A6
330
3110
100
AcDbEntity
  8
0
100
AcDbCircle
 10
368.6246994725628
 20
39.55929368549556
 30
0.0
 40
0.4249999999999998
100
AcDbArc
 50
214.2343965394811
 51
269.0935889663059
  0
ARC
  5
32A7
330
3110
100
AcDbEntity
  8
0
100
AcDbCircle
 10
368.629568672897
 20
41.19258447126767
 30
0.0
 40
0.4374999999999964
100
AcDbArc
 50
215.4865947512873
 51
273.2808909645667
  0
ARC
  5
32A8
330
3110
100
AcDbEntity
  8
0
100
AcDbCircle
 10
368.629568672897
 20
41.19258447126767
 30
0.0
 40
0.4374999999999964
100
AcDbArc
 50
136.2418279686274
 51
144.5134052487127
  0
ARC
  5
32A9
330
3110
100
AcDbEntity
  8
0
100
AcDbCircle
 10
368.629568672897
 20
41.19258447126767
 30
0.0
 40
0.2874999999999965
100
AcDbArc
 50
159.0717355593536
 51
259.2631448006975
  0
LINE
  5
32AA
330
3110
100
AcDbEntity
  8
0
100
AcDbLine
 10
366.4733337026074
 20
43.30876650569553
 30
0.0
 11
368.2733337026074
 21
43.30876650569553
 31
0.0
  0
LINE
  5
32AB
330
3110
100
AcDbEntity
  8
0
100
AcDbLine
 10
368.2733337026074
 20
43.18876650569553
 30
0.0
 11
368.2733337026074
 21
43.30876650569553
 31
0.0
  0
LINE
  5
32AC
330
3110
100
AcDbEntity
  8
0
100
AcDbLine
 10
375.3223337026073
 20
36.55929368549556
 30
0.0
 11
366.6961535546774
 21
36.55929368549556
 31
0.0
  0
LINE
  5
32AD
330
3110
100
AcDbEntity
  8
0
100
AcDbLine
 10
375.3223337026073
 20
42.55929368549555
 30
0.0
 11
368.2733337026074
 21
42.55929368549556
 31
0.0
  0
ENDBLK
  5
32B1
330
3110
100
AcDbEntity
  8
0
100
AcDbBlockEnd
  0
ENDSEC
  0
SECTION
  2
ENTITIES
  0
INSERT
  5
164
330
23
100
AcDbEntity
  8
0
100
AcDbBlockReference
  2
layers
 10
0.8387486649539821
 20
-3.611935436597064
 30
0.0
  0
INSERT
  5
47F
330
23
100
AcDbEntity
  8
0
100
AcDbBlockReference
  2
layers
 10
12.64909675321417
 20
9.076086994407404
 30
0.0
  0
INSERT
  5
67A
330
23
100
AcDbEntity
  8
0
100
AcDbBlockReference
  2
layers
 10
23.68122702935232
 20
1.494550467476614
 30
0.0
  0
INSERT
  5
8ED
330
23
100
AcDbEntity
  8
0
100
AcDbBlockReference
  2
layers
 10
25.68910834918592
 20
12.47561043609022
 30
0.0
  0
INSERT
  5
1779
330
23
100
AcDbEntity
  8
0
100
AcDbBlockReference
  2
layers
 10
4005.403377466062
 20
2386.589425638275
 30
0.0
  0
INSERT
  5
195F
330
23
100
AcDbEntity
  8
0
100
AcDbBlockReference
  2
layers
 10
2812.023053209706
 20
889.4146396532802
 30
0.0
 50
180.0
  0
INSERT
  5
1964
330
23
100
AcDbEntity
  8
0
100
AcDbBlockReference
  2
layers
 10
3177.023053209707
 20
889.41463965328
 30
0.0
 50
180.0
  0
INSERT
  5
1C38
330
23
100
AcDbEntity
  8
0
100
AcDbBlockReference
  2
layers
 10
3487.208200375695
 20
2289.015190068419
 30
0.0
  0
INSERT
  5
1C5C
330
23
100
AcDbEntity
  8
0
100
AcDbBlockReference
  2
layers
 10
3719.208200375695
 20
2289.015190068419
 30
0.0
  0
INSERT
  5
1CA2
330
23
100
AcDbEntity
  8
0
100
AcDbBlockReference
  2
layers
 10
4352.668123852659
 20
1983.379714513365
 30
0.0
 50
180.0
  0
INSERT
  5
1CC6
330
23
100
AcDbEntity
  8
0
100
AcDbBlockReference
  2
layers
 10
-4154.024405609434
 20
2292.550395297947
 30
0.0
 43
-1.0
 50
180.0
210
0.0
220
0.0
230
-1.0
  0
INSERT
  5
1CDA
330
23
100
AcDbEntity
  8
0
100
AcDbBlockReference
  2
layers
 10
-4153.905352170547
 20
2037.8120328891
 30
0.0
 43
-1.0
 50
90.0
210
0.0
220
0.0
230
-1.0
  0
INSERT
  5
2116
330
23
100
AcDbEntity
  8
0
100
AcDbBlockReference
  2
layers
 10
6587.557249977392
 20
3649.942832759772
 30
0.0
  0
INSERT
  5
21A1
330
23
100
AcDbEntity
  8
0
100
AcDbBlockReference
  2
layers
 10
6357.824868347478
 20
3593.658285467097
 30
0.0
  0
INSERT
  5
21F9
330
23
100
AcDbEntity
  8
0
100
AcDbBlockReference
  2
layers
 10
-6341.032732110387
 20
3604.67510161178
 30
0.0
 43
-1.0
210
0.0
220
0.0
230
-1.0
  0
INSERT
  5
222E
330
23
100
AcDbEntity
  8
0
100
AcDbBlockReference
  2
layers
 10
6291.318299696513
 20
4063.924572468751
 30
0.0
 50
270.0
  0
INSERT
  5
2277
330
23
100
AcDbEntity
  8
0
100
AcDbBlockReference
  2
layers
 10
6371.461487351094
 20
3608.070746907193
 30
0.0
 50
270.0
  0
INSERT
  5
23BF
330
23
100
AcDbEntity
  8
0
100
AcDbBlockReference
  2
layers
 10
6521.001551711691
 20
3985.910017899429
 30
0.0
 50
180.0
  0
INSERT
  5
2432
330
23
100
AcDbEntity
  8
0
100
AcDbBlockReference
  2
layers
 10
7034.807353865996
 20
3726.350671525807
 30
0.0
 50
270.0
  0
INSERT
  5
245F
330
23
100
AcDbEntity
  8
0
100
AcDbBlockReference
  2
layers
 10
6703.878909172508
 20
4042.706953282583
 30
0.0
 50
90.0
  0
INSERT
  5
2A47
330
23
100
AcDbEntity
  8
0
100
AcDbBlockReference
  2
layers
 10
4128.53026083983
 20
4705.8023978206
 30
0.0
  0
INSERT
  5
2B40
330
23
100
AcDbEntity
  8
0
100
AcDbBlockReference
  2
layers
 10
6578.035271414638
 20
3031.263824318219
 30
0.0
  0
INSERT
  5
2B73
330
23
100
AcDbEntity
  8
0
100
AcDbBlockReference
  2
layers
 10
6520.00852179784
 20
3871.521923328866
 30
0.0
  0
INSERT
  5
2B78
330
23
100
AcDbEntity
  8
0
100
AcDbBlockReference
  2
layers
 10
6769.008521797839
 20
3871.521923328867
 30
0.0
  0
INSERT
  5
32B2
330
23
100
AcDbEntity
  8
0
100
AcDbBlockReference
  2
SV_4 in - 30 ft Assy
 10
-10.32233370260746
 20
-33.3817665056955
 30
0.0
  0
ENDSEC
  0
SECTION
  2
OBJECTS
  0
DICTIONARY
  5
C
330
0
100
AcDbDictionary
281
     1
  3
ACAD_COLOR
350
1C
  3
ACAD_GROUP
350
D
  3
ACAD_LAYOUT
350
1A
  3
ACAD_MATERIAL
350
1B
  3
ACAD_MLEADERSTYLE
350
2CFD
  3
ACAD_MLINESTYLE
350
17
  3
ACAD_PLOTSETTINGS
350
19
  3
ACAD_PLOTSTYLENAME
350
E
  3
ACAD_SCALELIST
350
2CEB
  3
ACAD_TABLESTYLE
350
1D
  3
ACAD_VISUALSTYLE
350
2CD2
  3
AcadDim
350
2C10
  3
ACDB_RECOMPOSE_DATA
350
32B7
  3
AcDbVariableDictionary
350
166
  3
AEC_CLASSIFICATION_SYSTEM_DEFS
350
C97
  3
AEC_PROPERTY_SET_DEFS
350
C98
  0
DICTIONARY
  5
2D70
330
8
100
AcDbDictionary
280
     1
281
     1
  0
DICTIONARY
  5
179
330
2
100
AcDbDictionary
280
     1
281
     1
  3
ACAD_LAYERFILTERS
360
2C80
  3
ACAD_LAYERSTATES
360
3A5
  3
ACLYDICTIONARY
360
2C7F
  0
DICTIONARY
  5
2DB3
330
10
100
AcDbDictionary
280
     1
281
     1
  3
ADSK_XREC_LAYER_RECONCILED
360
2DB4
  0
DICTIONARY
  5
2DB5
330
15D
100
AcDbDictionary
280
     1
281
     1
  3
ADSK_XREC_LAYER_RECONCILED
360
2DB6
  0
DICTIONARY
  5
2DB9
330
654
100
AcDbDictionary
280
     1
281
     1
  3
ADSK_XREC_LAYER_RECONCILED
360
2DBA
  0
DICTIONARY
  5
2DBB
330
C78
100
AcDbDictionary
280
     1
281
     1
  3
ADSK_XREC_LAYER_RECONCILED
360
2DBC
  0
DICTIONARY
  5
2DBD
330
C79
100
AcDbDictionary
280
     1
281
     1
  3
ADSK_XREC_LAYER_RECONCILED
360
2DBE
  0
DICTIONARY
  5
2DBF
330
C7A
100
AcDbDictionary
280
     1
281
     1
  3
ADSK_XREC_LAYER_RECONCILED
360
2DC0
  0
DICTIONARY
  5
2DC1
330
C7C
100
AcDbDictionary
280
     1
281
     1
  3
ADSK_XREC_LAYER_RECONCILED
360
2DC2
  0
DICTIONARY
  5
30C0
330
30BF
100
AcDbDictionary
280
     1
281
     1
  0
DICTIONARY
  5
30C2
330
30C1
100
AcDbDictionary
280
     1
281
     1
  0
DICTIONARY
  5
32
330
23
100
AcDbDictionary
280
     1
281
     1
  3
ACAD_SORTENTS
360
33
  0
DICTIONARY
  5
2E35
330
2E34
100
AcDbDictionary
280
     1
281
     1
  3
ACAD_SORTENTS
360
2E36
  0
DICTIONARY
  5
2E4C
330
2E4B
100
AcDbDictionary
280
     1
281
     1
  3
ACAD_SORTENTS
360
2E4D
  0
DICTIONARY
  5
2FAB
330
2F96
100
AcDbDictionary
280
     1
281
     1
  3
ACAD_SORTENTS
360
2FAC
  0
DICTIONARY
  5
2FF3
330
2FF2
100
AcDbDictionary
280
     1
281
     1
  3
ACAD_SORTENTS
360
2FF4
  0
DICTIONARY
  5
302F
330
301A
100
AcDbDictionary
280
     1
281
     1
  3
ACAD_SORTENTS
360
30D7
  0
DICTIONARY
  5
306F
330
306E
100
AcDbDictionary
280
     1
281
     1
  3
ACAD_SORTENTS
360
3070
  0
DICTIONARY
  5
3095
330
3094
100
AcDbDictionary
280
     1
281
     1
  3
ACAD_SORTENTS
360
3096
  0
DICTIONARY
  5
32AE
330
3110
100
AcDbDictionary
280
     1
281
     1
  3
ACAD_SORTENTS
360
32AF
  0
DICTIONARY
  5
1C
102
{ACAD_REACTORS
330
C
102
}
330
C
100
AcDbDictionary
281
     1
  0
DICTIONARY
  5
D
102
{ACAD_REACTORS
330
C
102
}
330
C
100
AcDbDictionary
281
     1
  3
*A1
350
3A3
  3
*A2
350
3A4
  0
DICTIONARY
  5
1A
102
{ACAD_REACTORS
330
C
102
}
330
C
100
AcDbDictionary
281
     1
  3
Layout1
350
22
  3
Layout2
350
2A
  3
Model
350
26
  0
DICTIONARY
  5
1B
102
{ACAD_REACTORS
330
C
102
}
330
C
100
AcDbDictionary
281
     1
  3
ByBlock
350
2CC2
  3
ByLayer
350
2CBA
  3
Global
350
2CCA
  0
DICTIONARY
  5
2CFD
102
{ACAD_REACTORS
330
C
102
}
330
C
100
AcDbDictionary
281
     1
  3
Standard
350
2CFE
  0
DICTIONARY
  5
17
102
{ACAD_REACTORS
330
C
102
}
330
C
100
AcDbDictionary
281
     1
  3
Standard
350
18
  0
DICTIONARY
  5
19
102
{ACAD_REACTORS
330
C
102
}
330
C
100
AcDbDictionary
281
     1
  0
ACDBDICTIONARYWDFLT
  5
E
102
{ACAD_REACTORS
330
C
102
}
330
C
100
AcDbDictionary
281
     1
  3
Normal
350
F
100
AcDbDictionaryWithDefault
340
F
  0
DICTIONARY
  5
2CEB
102
{ACAD_REACTORS
330
C
102
}
330
C
100
AcDbDictionary
281
     1
  3
A0
350
2CEC
  3
A1
350
2CED
  3
A2
350
2CEE
  3
A3
350
2CEF
  3
A4
350
2CF0
  3
A5
350
2CF1
  3
A6
350
2CF2
  3
A7
350
2CF3
  3
A8
350
2CF4
  3
A9
350
2CF5
  3
B0
350
2CF6
  3
B1
350
2CF7
  3
B2
350
2CF8
  3
B3
350
2CF9
  3
B4
350
2CFA
  3
B5
350
2CFB
  3
B6
350
2CFC
  0
DICTIONARY
  5
1D
102
{ACAD_REACTORS
330
C
102
}
330
C
100
AcDbDictionary
281
     1
  3
Standard
350
1E
  0
DICTIONARY
  5
2CD2
102
{ACAD_REACTORS
330
C
102
}
330
C
100
AcDbDictionary
281
     1
  3
2dWireframe
350
2CD8
  3
Basic
350
2CD7
  3
Brighten
350
2CDE
  3
ColorChange
350
2CE2
  3
Conceptual
350
2CDB
  3
Dim
350
2CDD
  3
EdgeColorOff
350
2CEA
  3
Facepattern
350
2CE1
  3
Flat
350
2CD3
  3
FlatWithEdges
350
2CD4
  3
Gouraud
350
2CD5
  3
GouraudWithEdges
350
2CD6
  3
Hidden
350
2CDA
  3
JitterOff
350
2CE8
  3
Linepattern
350
2CE0
  3
OverhangOff
350
2CE9
  3
Realistic
350
2CDC
  3
Shaded
350
2CE7
  3
Shaded with edges
350
2CE6
  3
Shades of Gray
350
2CE3
  3
Sketchy
350
2CE4
  3
Thicken
350
2CDF
  3
Wireframe
350
2CD9
  3
X-Ray
350
2CE5
  0
XRECORD
  5
2C10
102
{ACAD_REACTORS
330
C
102
}
330
C
100
AcDbXrecord
280
     1
 90
   990106
  3

 60
     0
 61
     0
 62
     1
 63
     3
 64
     0
 65
     0
 66
     0
 67
     3
 68
     1
 69
     0
 70
     0
 71
     0
 72
     0
 40
0.0
170
     1
340
2720
  0
XRECORD
  5
32B7
102
{ACAD_REACTORS
330
C
102
}
330
C
100
AcDbXrecord
280
     1
 90
        1
330
1E
  0
DICTIONARY
  5
166
102
{ACAD_REACTORS
330
C
102
}
330
C
100
AcDbDictionary
281
     1
  3
CANNOSCALE
350
2DA8
  3
CMLEADERSTYLE
350
2DA7
  3
CTABLESTYLE
350
167
  3
DIMASSOC
350
255
  3
HIDETEXT
350
254
  3
PROJECTNAME
350
256
  3
XCLIPFRAME
350
32B5
  0
DICTIONARY
  5
C97
102
{ACAD_REACTORS
330
C
102
}
330
C
100
AcDbDictionary
281
     1
  0
DICTIONARY
  5
C98
102
{ACAD_REACTORS
330
C
102
}
330
C
100
AcDbDictionary
281
     1
  0
DICTIONARY
  5
2C80
102
{ACAD_REACTORS
330
179
102
}
330
179
100
AcDbDictionary
281
     1
  0
DICTIONARY
  5
3A5
102
{ACAD_REACTORS
330
179
102
}
330
179
100
AcDbDictionary
281
     1
  0
DICTIONARY
  5
2C7F
102
{ACAD_REACTORS
330
179
102
}
330
179
100
AcDbDictionary
281
     1
1001
ACAD
1000
<All
  0
XRECORD
  5
2DB4
102
{ACAD_REACTORS
330
2DB3
102
}
330
2DB3
100
AcDbXrecord
280
     1
290
     1
  0
XRECORD
  5
2DB6
102
{ACAD_REACTORS
330
2DB5
102
}
330
2DB5
100
AcDbXrecord
280
     1
290
     1
  0
XRECORD
  5
2DBA
102
{ACAD_REACTORS
330
2DB9
102
}
330
2DB9
100
AcDbXrecord
280
     1
290
     1
  0
XRECORD
  5
2DBC
102
{ACAD_REACTORS
330
2DBB
102
}
330
2DBB
100
AcDbXrecord
280
     1
290
     1
  0
XRECORD
  5
2DBE
102
{ACAD_REACTORS
330
2DBD
102
}
330
2DBD
100
AcDbXrecord
280
     1
290
     1
  0
XRECORD
  5
2DC0
102
{ACAD_REACTORS
330
2DBF
102
}
330
2DBF
100
AcDbXrecord
280
     1
290
     1
  0
XRECORD
  5
2DC2
102
{ACAD_REACTORS
330
2DC1
102
}
330
2DC1
100
AcDbXrecord
280
     1
290
     1
  0
SORTENTSTABLE
  5
33
102
{ACAD_REACTORS
330
32
102
}
330
32
100
AcDbSortentsTable
330
23
331
1779
  5
1967
331
67A
  5
67C
331
195F
  5
1BF5
331
21F9
  5
26A8
331
2432
  5
26A3
331
2B78
  5
2A25
331
23BF
  5
26AA
331
1CA2
  5
1C50
331
1C38
  5
1A64
331
47F
  5
47F
331
1CC6
  5
1C6D
331
1C5C
  5
1BAD
331
2B73
  5
2A1D
331
1CDA
  5
1C83
331
21A1
  5
26A6
331
222E
  5
26A7
331
2A47
  5
2A7C
331
245F
  5
26A5
331
164
  5
1DC
331
2277
  5
26A9
331
2116
  5
26A4
331
2B40
  5
2B78
331
8ED
  5
8F0
331
1964
  5
1A50
  0
SORTENTSTABLE
  5
2E36
102
{ACAD_REACTORS
330
2E35
102
}
330
2E35
100
AcDbSortentsTable
330
2E34
331
2E41
  5
379
331
2E48
  5
376
331
2E42
  5
37A
331
2E43
  5
37B
331
2E44
  5
37D
331
2E46
  5
37E
331
2E47
  5
37F
331
2E39
  5
374
331
2E3A
  5
377
331
2E3B
  5
373
331
2E3C
  5
371
331
2E3D
  5
372
331
2E40
  5
378
331
2E3F
  5
370
  0
SORTENTSTABLE
  5
2E4D
102
{ACAD_REACTORS
330
2E4C
102
}
330
2E4C
100
AcDbSortentsTable
330
2E4B
  0
SORTENTSTABLE
  5
2FAC
102
{ACAD_REACTORS
330
2FAB
102
}
330
2FAB
100
AcDbSortentsTable
330
2F96
331
2F98
  5
2F9C
331
2F99
  5
2F9F
331
2F9A
  5
2F9B
331
2FA0
  5
2FA1
331
2F9B
  5
2F99
331
2FA1
  5
2FA2
331
2F9C
  5
2F9A
331
2FA2
  5
2FA3
331
2FA3
  5
2FA5
331
2F9E
  5
2F98
331
2F9F
  5
2FA0
331
2FA5
  5
2FA6
331
2FA6
  5
2FA7
331
2FA7
  5
2F9E
  0
SORTENTSTABLE
  5
2FF4
102
{ACAD_REACTORS
330
2FF3
102
}
330
2FF3
100
AcDbSortentsTable
330
2FF2
331
2FF7
  5
39C
331
2FF8
  5
39E
331
2FF9
  5
39B
331
2FFA
  5
399
331
2FFB
  5
39A
331
2FFD
  5
398
331
3002
  5
3A4
331
3003
  5
3A3
  0
SORTENTSTABLE
  5
30D7
102
{ACAD_REACTORS
330
302F
102
}
330
302F
100
AcDbSortentsTable
330
301A
331
30C8
  5
30C6
331
30CA
  5
30C4
331
30CB
  5
30CC
331
30CC
  5
30CD
331
30D1
  5
30D2
331
30CD
  5
30CE
331
30D2
  5
30D3
331
30D3
  5
30CA
331
30CE
  5
30CF
331
30C4
  5
30C8
331
30C5
  5
30CB
331
30CF
  5
30D1
331
30C6
  5
30C7
331
30C7
  5
30C5
  0
SORTENTSTABLE
  5
3070
102
{ACAD_REACTORS
330
306F
102
}
330
306F
100
AcDbSortentsTable
330
306E
331
3087
  5
350
331
3086
  5
34F
331
3085
  5
33A
331
3084
  5
339
331
3083
  5
34E
331
3082
  5
338
331
3081
  5
340
331
3077
  5
344
331
3080
  5
34D
331
3076
  5
343
331
307F
  5
34C
331
307E
  5
34B
331
3075
  5
342
331
307D
  5
34A
331
3074
  5
341
331
307C
  5
349
331
308F
  5
351
331
307B
  5
348
331
308E
  5
354
331
307A
  5
346
331
308D
  5
353
331
3079
  5
347
331
308C
  5
33C
331
3078
  5
345
331
308B
  5
33B
331
308A
  5
33F
331
3089
  5
33E
331
3090
  5
352
331
3088
  5
33D
  0
SORTENTSTABLE
  5
3096
102
{ACAD_REACTORS
330
3095
102
}
330
3095
100
AcDbSortentsTable
330
3094
331
30B8
  5
44A
331
30A8
  5
45D
331
309B
  5
44E
331
30A2
  5
456
331
30AB
  5
446
331
309E
  5
453
331
30A5
  5
45C
331
30BB
  5
43C
331
30AE
  5
442
331
30B1
  5
45F
331
30B4
  5
459
331
30B7
  5
443
331
309A
  5
44D
331
30A1
  5
455
331
30AA
  5
441
331
309D
  5
451
331
30A4
  5
45B
331
30BA
  5
450
331
30AD
  5
449
331
30A7
  5
43D
331
30BD
  5
440
331
30B0
  5
45E
331
30B3
  5
460
331
30B6
  5
445
331
3099
  5
44C
331
30A0
  5
454
331
30B9
  5
448
331
30A9
  5
43F
331
309C
  5
44F
331
30A3
  5
45A
331
30AC
  5
447
331
309F
  5
452
331
30A6
  5
44B
331
30BC
  5
43E
331
30AF
  5
444
331
30B2
  5
458
331
30B5
  5
457
  0
SORTENTSTABLE
  5
32AF
102
{ACAD_REACTORS
330
32AE
102
}
330
32AE
100
AcDbSortentsTable
330
3110
331
311C
  5
311D
331
311D
  5
311F
331
311F
  5
3120
331
3120
  5
3121
331
3121
  5
3118
331
3112
  5
3116
331
3113
  5
3119
331
3114
  5
3115
331
3115
  5
3113
331
3116
  5
3114
331
3118
  5
3112
331
3119
  5
311A
331
311A
  5
311B
331
311B
  5
311C
  0
GROUP
  5
3A3
102
{ACAD_REACTORS
330
D
102
}
330
D
100
AcDbGroup
300

 70
     0
 71
     1
  0
GROUP
  5
3A4
102
{ACAD_REACTORS
330
D
102
}
330
D
100
AcDbGroup
300

 70
     0
 71
     1
  0
LAYOUT
  5
22
102
{ACAD_REACTORS
330
1A
102
}
330
1A
100
AcDbPlotSettings
  1

  2
Auto eng-off on Server2000
  4

  6

 40
0.0
 41
0.0
 42
0.0
 43
0.0
 44
0.0
 45
0.0
 46
0.0
 47
0.0
 48
0.0
 49
0.0
140
0.0
141
0.0
142
1.0
143
1.0
 70
   688
 72
     0
 73
     0
 74
     5
  7
HLV Layouts HP 5100.ctb
 75
    16
147
1.0
 76
     0
 77
     2
 78
   300
148
0.0
149
0.0
100
AcDbLayout
  1
Layout1
 70
     1
 71
     1
 10
0.0
 20
0.0
 11
12.0
 21
9.0
 12
0.0
 22
0.0
 32
0.0
 14
1.000000000000000E+20
 24
1.000000000000000E+20
 34
1.000000000000000E+20
 15
-1.000000000000000E+20
 25
-1.000000000000000E+20
 35
-1.000000000000000E+20
146
0.0
 13
0.0
 23
0.0
 33
0.0
 16
1.0
 26
0.0
 36
0.0
 17
0.0
 27
1.0
 37
0.0
 76
     0
330
1F
  0
LAYOUT
  5
2A
102
{ACAD_REACTORS
330
1A
102
}
330
1A
100
AcDbPlotSettings
  1

  2
Auto eng-off on Server2000
  4

  6

 40
0.0
 41
0.0
 42
0.0
 43
0.0
 44
0.0
 45
0.0
 46
0.0
 47
0.0
 48
0.0
 49
0.0
140
0.0
141
0.0
142
1.0
143
1.0
 70
   688
 72
     0
 73
     0
 74
     5
  7
HLV Layouts HP 5100.ctb
 75
    16
147
1.0
 76
     0
 77
     2
 78
   300
148
0.0
149
0.0
100
AcDbLayout
  1
Layout2
 70
     1
 71
     2
 10
0.0
 20
0.0
 11
12.0
 21
9.0
 12
0.0
 22
0.0
 32
0.0
 14
0.0
 24
0.0
 34
0.0
 15
0.0
 25
0.0
 35
0.0
146
0.0
 13
0.0
 23
0.0
 33
0.0
 16
1.0
 26
0.0
 36
0.0
 17
0.0
 27
1.0
 37
0.0
 76
     0
330
27
  0
LAYOUT
  5
26
102
{ACAD_XDICTIONARY
360
2D27
102
}
102
{ACAD_REACTORS
330
1A
102
}
330
1A
100
AcDbPlotSettings
  1

  2
\\server2000\Hp Laserjet 5100
  4
11x17
  6

 40
7.143749713897705
 41
5.027085304260253
 42
7.143768310546875
 43
5.027069091796875
 44
279.3999938964844
 45
431.7999877929685
 46
0.0
 47
12.59529639703756
 48
5993.110747637569
 49
387.6874131368804
140
9249.782839946446
141
2954.647128430343
142
1.0
143
168.2314343771624
 70
 11956
 72
     0
 73
     1
 74
     1
  7
HLV Layouts HP 5100.ctb
 75
     0
147
0.0059441923187677
 76
     0
 77
     2
 78
   300
148
-155002.9850262262
149
-65535.81924278072
100
AcDbLayout
  1
Model
 70
     1
 71
     0
 10
0.0
 20
0.0
 11
12.0
 21
9.0
 12
0.0
 22
0.0
 32
0.0
 14
0.0
 24
0.0
 34
0.0
 15
0.0
 25
0.0
 35
0.0
146
0.0
 13
0.0
 23
0.0
 33
0.0
 16
1.0
 26
0.0
 36
0.0
 17
0.0
 27
1.0
 37
0.0
 76
     0
330
23
331
2CB0
1001
ACAD_PSEXT
1000
\\server2000\Hp Laserjet 5100
1000
HP LaserJet 5000 Series PCL
1000
\\server2000
1000

1070
     0
  0
MATERIAL
  5
2CC2
102
{ACAD_XDICTIONARY
360
2CC3
102
}
102
{ACAD_REACTORS
330
1B
102
}
330
1B
100
AcDbMaterial
  1
ByBlock
 72
     0
 43
0.0208333333333333
 43
0.0
 43
0.0
 43
0.0
 43
0.0
 43
0.0208333333333333
 43
0.0
 43
0.0
 43
0.0
 43
0.0
 43
1.0
 43
0.0
 43
0.0
 43
0.0
 43
0.0
 43
1.0
 77
     0
 47
0.0208333333333333
 47
0.0
 47
0.0
 47
0.0
 47
0.0
 47
0.0208333333333333
 47
0.0
 47
0.0
 47
0.0
 47
0.0
 47
1.0
 47
0.0
 47
0.0
 47
0.0
 47
0.0
 47
1.0
171
     0
 49
0.0208333333333333
 49
0.0
 49
0.0
 49
0.0
 49
0.0
 49
0.0208333333333333
 49
0.0
 49
0.0
 49
0.0
 49
0.0
 49
1.0
 49
0.0
 49
0.0
 49
0.0
 49
0.0
 49
1.0
175
     0
142
0.0208333333333333
142
0.0
142
0.0
142
0.0
142
0.0
142
0.0208333333333333
142
0.0
142
0.0
142
0.0
142
0.0
142
1.0
142
0.0
142
0.0
142
0.0
142
0.0
142
1.0
179
     0
144
0.0208333333333333
144
0.0
144
0.0
144
0.0
144
0.0
144
0.0208333333333333
144
0.0
144
0.0
144
0.0
144
0.0
144
1.0
144
0.0
144
0.0
144
0.0
144
0.0
144
1.0
147
0.0208333333333333
147
0.0
147
0.0
147
0.0
147
0.0
147
0.0208333333333333
147
0.0
147
0.0
147
0.0
147
0.0
147
1.0
147
0.0
147
0.0
147
0.0
147
0.0
147
1.0
  0
MATERIAL
  5
2CBA
102
{ACAD_XDICTIONARY
360
2CBB
102
}
102
{ACAD_REACTORS
330
1B
102
}
330
1B
100
AcDbMaterial
  1
ByLayer
 72
     0
 43
0.0208333333333333
 43
0.0
 43
0.0
 43
0.0
 43
0.0
 43
0.0208333333333333
 43
0.0
 43
0.0
 43
0.0
 43
0.0
 43
1.0
 43
0.0
 43
0.0
 43
0.0
 43
0.0
 43
1.0
 77
     0
 47
0.0208333333333333
 47
0.0
 47
0.0
 47
0.0
 47
0.0
 47
0.0208333333333333
 47
0.0
 47
0.0
 47
0.0
 47
0.0
 47
1.0
 47
0.0
 47
0.0
 47
0.0
 47
0.0
 47
1.0
171
     0
 49
0.0208333333333333
 49
0.0
 49
0.0
 49
0.0
 49
0.0
 49
0.0208333333333333
 49
0.0
 49
0.0
 49
0.0
 49
0.0
 49
1.0
 49
0.0
 49
0.0
 49
0.0
 49
0.0
 49
1.0
175
     0
142
0.0208333333333333
142
0.0
142
0.0
142
0.0
142
0.0
142
0.0208333333333333
142
0.0
142
0.0
142
0.0
142
0.0
142
1.0
142
0.0
142
0.0
142
0.0
142
0.0
142
1.0
179
     0
144
0.0208333333333333
144
0.0
144
0.0
144
0.0
144
0.0
144
0.0208333333333333
144
0.0
144
0.0
144
0.0
144
0.0
144
1.0
144
0.0
144
0.0
144
0.0
144
0.0
144
1.0
147
0.0208333333333333
147
0.0
147
0.0
147
0.0
147
0.0
147
0.0208333333333333
147
0.0
147
0.0
147
0.0
147
0.0
147
1.0
147
0.0
147
0.0
147
0.0
147
0.0
147
1.0
  0
MATERIAL
  5
2CCA
102
{ACAD_XDICTIONARY
360
2CCB
102
}
102
{ACAD_REACTORS
330
1B
102
}
330
1B
100
AcDbMaterial
  1
Global
 72
     0
 43
0.0208333333333333
 43
0.0
 43
0.0
 43
0.0
 43
0.0
 43
0.0208333333333333
 43
0.0
 43
0.0
 43
0.0
 43
0.0
 43
1.0
 43
0.0
 43
0.0
 43
0.0
 43
0.0
 43
1.0
 77
     0
 47
0.0208333333333333
 47
0.0
 47
0.0
 47
0.0
 47
0.0
 47
0.0208333333333333
 47
0.0
 47
0.0
 47
0.0
 47
0.0
 47
1.0
 47
0.0
 47
0.0
 47
0.0
 47
0.0
 47
1.0
171
     0
 49
0.0208333333333333
 49
0.0
 49
0.0
 49
0.0
 49
0.0
 49
0.0208333333333333
 49
0.0
 49
0.0
 49
0.0
 49
0.0
 49
1.0
 49
0.0
 49
0.0
 49
0.0
 49
0.0
 49
1.0
175
     0
142
0.0208333333333333
142
0.0
142
0.0
142
0.0
142
0.0
142
0.0208333333333333
142
0.0
142
0.0
142
0.0
142
0.0
142
1.0
142
0.0
142
0.0
142
0.0
142
0.0
142
1.0
179
     0
144
0.0208333333333333
144
0.0
144
0.0
144
0.0
144
0.0
144
0.0208333333333333
144
0.0
144
0.0
144
0.0
144
0.0
144
1.0
144
0.0
144
0.0
144
0.0
144
0.0
144
1.0
147
0.0208333333333333
147
0.0
147
0.0
147
0.0
147
0.0
147
0.0208333333333333
147
0.0
147
0.0
147
0.0
147
0.0
147
1.0
147
0.0
147
0.0
147
0.0
147
0.0
147
1.0
  0
MLEADERSTYLE
  5
2CFE
102
{ACAD_REACTORS
330
2CFD
102
}
330
2CFD
100
AcDbMLeaderStyle
170
     2
171
     1
172
     0
 90
        2
 40
0.0
 41
0.0
173
     1
 91
-1056964608
340
14
 92
       -2
290
     1
 42
0.09
291
     1
 43
0.36
  3
Standard
 44
0.18
300

342
11
174
     1
178
     6
175
     1
176
     0
 93
-1056964608
 45
0.18
292
     0
297
     0
 46
0.18
 94
-1056964608
 47
1.0
 49
1.0
140
1.0
293
     1
141
0.0
294
     1
177
     0
142
1.0
295
     0
296
     0
143
0.125
1001
ACAD_MLEADERVER
1070
     2
  0
MLINESTYLE
  5
18
102
{ACAD_REACTORS
330
17
102
}
330
17
100
AcDbMlineStyle
  2
STANDARD
 70
     0
  3

 62
   256
 51
90.0
 52
90.0
 71
     2
 49
0.5
 62
   256
  6
BYLAYER
 49
-0.5
 62
   256
  6
BYLAYER
  0
ACDBPLACEHOLDER
  5
F
102
{ACAD_REACTORS
330
E
102
}
330
E
  0
SCALE
  5
2CEC
102
{ACAD_REACTORS
330
2CEB
102
}
330
2CEB
100
AcDbScale
 70
     0
300
1:1
140
1.0
141
1.0
290
     1
  0
SCALE
  5
2CED
102
{ACAD_REACTORS
330
2CEB
102
}
330
2CEB
100
AcDbScale
 70
     0
300
1/128" = 1'-0"
140
0.0078125
141
12.0
290
     0
  0
SCALE
  5
2CEE
102
{ACAD_REACTORS
330
2CEB
102
}
330
2CEB
100
AcDbScale
 70
     0
300
1/64" = 1'-0"
140
0.015625
141
12.0
290
     0
  0
SCALE
  5
2CEF
102
{ACAD_REACTORS
330
2CEB
102
}
330
2CEB
100
AcDbScale
 70
     0
300
1/32" = 1'-0"
140
0.03125
141
12.0
290
     0
  0
SCALE
  5
2CF0
102
{ACAD_REACTORS
330
2CEB
102
}
330
2CEB
100
AcDbScale
 70
     0
300
1/16" = 1'-0"
140
0.0625
141
12.0
290
     0
  0
SCALE
  5
2CF1
102
{ACAD_REACTORS
330
2CEB
102
}
330
2CEB
100
AcDbScale
 70
     0
300
3/32" = 1'-0"
140
0.09375
141
12.0
290
     0
  0
SCALE
  5
2CF2
102
{ACAD_REACTORS
330
2CEB
102
}
330
2CEB
100
AcDbScale
 70
     0
300
1/8" = 1'-0"
140
0.125
141
12.0
290
     0
  0
SCALE
  5
2CF3
102
{ACAD_REACTORS
330
2CEB
102
}
330
2CEB
100
AcDbScale
 70
     0
300
3/16" = 1'-0"
140
0.1875
141
12.0
290
     0
  0
SCALE
  5
2CF4
102
{ACAD_REACTORS
330
2CEB
102
}
330
2CEB
100
AcDbScale
 70
     0
300
1/4" = 1'-0"
140
0.25
141
12.0
290
     0
  0
SCALE
  5
2CF5
102
{ACAD_REACTORS
330
2CEB
102
}
330
2CEB
100
AcDbScale
 70
     0
300
3/8" = 1'-0"
140
0.375
141
12.0
290
     0
  0
SCALE
  5
2CF6
102
{ACAD_REACTORS
330
2CEB
102
}
330
2CEB
100
AcDbScale
 70
     0
300
1/2" = 1'-0"
140
0.5
141
12.0
290
     0
  0
SCALE
  5
2CF7
102
{ACAD_REACTORS
330
2CEB
102
}
330
2CEB
100
AcDbScale
 70
     0
300
3/4" = 1'-0"
140
0.75
141
12.0
290
     0
  0
SCALE
  5
2CF8
102
{ACAD_REACTORS
330
2CEB
102
}
330
2CEB
100
AcDbScale
 70
     0
300
1" = 1'-0"
140
1.0
141
12.0
290
     0
  0
SCALE
  5
2CF9
102
{ACAD_REACTORS
330
2CEB
102
}
330
2CEB
100
AcDbScale
 70
     0
300
1-1/2" = 1'-0"
140
1.5
141
12.0
290
     0
  0
SCALE
  5
2CFA
102
{ACAD_REACTORS
330
2CEB
102
}
330
2CEB
100
AcDbScale
 70
     0
300
3" = 1'-0"
140
3.0
141
12.0
290
     0
  0
SCALE
  5
2CFB
102
{ACAD_REACTORS
330
2CEB
102
}
330
2CEB
100
AcDbScale
 70
     0
300
6" = 1'-0"
140
6.0
141
12.0
290
     0
  0
SCALE
  5
2CFC
102
{ACAD_REACTORS
330
2CEB
102
}
330
2CEB
100
AcDbScale
 70
     0
300
1'-0" = 1'-0"
140
12.0
141
12.0
290
     0
  0
TABLESTYLE
  5
1E
102
{ACAD_XDICTIONARY
360
2D6D
102
}
102
{ACAD_REACTORS
330
1D
102
}
330
1D
100
AcDbTableStyle
  3
Standard
 70
     0
 71
     0
 40
0.06
 41
0.06
280
     0
281
     0
  7
Standard
140
0.18
170
     2
 62
     0
 63
     7
283
     0
274
    -2
284
     1
 64
     0
275
    -2
285
     1
 65
     0
276
    -2
286
     1
 66
     0
277
    -2
287
     1
 67
     0
278
    -2
288
     1
 68
     0
279
    -2
289
     1
 69
     0
  7
Standard
140
0.25
170
     5
 62
     0
 63
     7
283
     0
274
    -2
284
     1
 64
     0
275
    -2
285
     1
 65
     0
276
    -2
286
     1
 66
     0
277
    -2
287
     1
 67
     0
278
    -2
288
     1
 68
     0
279
    -2
289
     1
 69
     0
  7
Standard
140
0.18
170
     5
 62
     0
 63
     7
283
     0
274
    -2
284
     1
 64
     0
275
    -2
285
     1
 65
     0
276
    -2
286
     1
 66
     0
277
    -2
287
     1
 67
     0
278
    -2
288
     1
 68
     0
279
    -2
289
     1
 69
     0
  0
VISUALSTYLE
  5
2CD8
102
{ACAD_XDICTIONARY
360
32C3
102
}
102
{ACAD_REACTORS
330
2CD2
102
}
330
2CD2
100
AcDbVisualStyle
  2

 70
     4
 71
     0
 72
     2
 73
     0
 90
        0
 40
-0.6
 41
-30.0
 62
     5
 63
     7
421
 16777215
 74
     1
 91
        4
 64
     7
 65
   257
 75
     1
175
     1
 42
1.0
 92
        0
 66
   257
 43
1.0
 76
     1
 77
     6
 78
     2
 67
     7
 79
     5
170
     0
171
     0
290
     0
174
     0
 93
        1
 44
0.0
173
     0
291
     0
 45
0.0
1001
ACAD
1000
AcDbSavedByObjectVersion
1070
     0
  0
VISUALSTYLE
  5
2CD7
102
{ACAD_XDICTIONARY
360
32C1
102
}
102
{ACAD_REACTORS
330
2CD2
102
}
330
2CD2
100
AcDbVisualStyle
  2

 70
     7
 71
     1
 72
     0
 73
     1
 90
        0
 40
-0.6
 41
-30.0
 62
     5
 63
     7
421
 16777215
 74
     0
 91
        4
 64
     7
 65
   257
 75
     1
175
     1
 42
1.0
 92
        8
 66
     7
 43
1.0
 76
     1
 77
     6
 78
     2
 67
     7
 79
     5
170
     0
171
     0
290
     0
174
     0
 93
        1
 44
0.0
173
     0
291
     1
 45
0.0
1001
ACAD
1000
AcDbSavedByObjectVersion
1070
     0
  0
VISUALSTYLE
  5
2CDE
102
{ACAD_XDICTIONARY
360
32CF
102
}
102
{ACAD_REACTORS
330
2CD2
102
}
330
2CD2
100
AcDbVisualStyle
  2

 70
    12
 71
     2
 72
     2
 73
     0
 90
        0
 40
-0.6
 41
-30.0
 62
     5
 63
     7
421
 16777215
 74
     1
 91
        4
 64
     7
 65
   257
 75
     1
175
     1
 42
1.0
 92
        8
 66
     7
 43
1.0
 76
     1
 77
     6
 78
     2
 67
     7
 79
     5
170
     0
171
     0
290
     0
174
     0
 93
        1
 44
50.0
173
     0
291
     1
 45
0.0
1001
ACAD
1000
AcDbSavedByObjectVersion
1070
     0
  0
VISUALSTYLE
  5
2CE2
102
{ACAD_XDICTIONARY
360
32D7
102
}
102
{ACAD_REACTORS
330
2CD2
102
}
330
2CD2
100
AcDbVisualStyle
  2

 70
    16
 71
     2
 72
     2
 73
     3
 90
        0
 40
-0.6
 41
-30.0
 62
     5
 63
     8
421
  8421504
 74
     1
 91
        4
 64
     7
 65
   257
 75
     1
175
     1
 42
1.0
 92
        8
 66
     8
424
  8421504
 43
1.0
 76
     1
 77
     6
 78
     2
 67
     7
 79
     5
170
     0
171
     0
290
     0
174
     0
 93
        1
 44
0.0
173
     0
291
     1
 45
0.0
1001
ACAD
1000
AcDbSavedByObjectVersion
1070
     0
  0
VISUALSTYLE
  5
2CDB
102
{ACAD_XDICTIONARY
360
32C9
102
}
102
{ACAD_REACTORS
330
2CD2
102
}
330
2CD2
100
AcDbVisualStyle
  2

 70
     9
 71
     3
 72
     2
 73
     0
 90
        0
 40
-0.6
 41
-30.0
 62
     5
 63
     7
421
 16777215
 74
     2
 91
        2
 64
     7
 65
   257
 75
     1
175
     1
 42
179.0
 92
        8
 66
     7
 43
1.0
 76
     1
 77
     6
 78
     2
 67
     7
 79
     3
170
     0
171
     0
290
     0
174
     0
 93
        1
 44
0.0
173
     0
291
     0
 45
0.0
1001
ACAD
1000
AcDbSavedByObjectVersion
1070
     0
  0
VISUALSTYLE
  5
2CDD
102
{ACAD_XDICTIONARY
360
32CD
102
}
102
{ACAD_REACTORS
330
2CD2
102
}
330
2CD2
100
AcDbVisualStyle
  2

 70
    11
 71
     2
 72
     2
 73
     0
 90
        0
 40
-0.6
 41
-30.0
 62
     5
 63
     7
421
 16777215
 74
     1
 91
        4
 64
     7
 65
   257
 75
     1
175
     1
 42
1.0
 92
        8
 66
     7
 43
1.0
 76
     1
 77
     6
 78
     2
 67
     7
 79
     5
170
     0
171
     0
290
     0
174
     0
 93
        1
 44
-50.0
173
     0
291
     1
 45
0.0
1001
ACAD
1000
AcDbSavedByObjectVersion
1070
     0
  0
VISUALSTYLE
  5
2CEA
102
{ACAD_XDICTIONARY
360
32E7
102
}
102
{ACAD_REACTORS
330
2CD2
102
}
330
2CD2
100
AcDbVisualStyle
  2

 70
    22
 71
     2
 72
     2
 73
     0
 90
        0
 40
-0.6
 41
-30.0
 62
     5
 63
     7
421
 16777215
 74
     1
 91
        4
 64
     7
 65
   257
 75
     1
175
     1
 42
1.0
 92
        8
 66
     7
 43
1.0
 76
     1
 77
     6
 78
     2
 67
     7
 79
     5
170
     0
171
     0
290
     0
174
     0
 93
        1
 44
0.0
173
     0
291
     1
 45
0.0
1001
ACAD
1000
AcDbSavedByObjectVersion
1070
     0
  0
VISUALSTYLE
  5
2CE1
102
{ACAD_XDICTIONARY
360
32D5
102
}
102
{ACAD_REACTORS
330
2CD2
102
}
330
2CD2
100
AcDbVisualStyle
  2

 70
    15
 71
     2
 72
     2
 73
     0
 90
        0
 40
-0.6
 41
-30.0
 62
     5
 63
     7
421
 16777215
 74
     1
 91
        4
 64
     7
 65
   257
 75
     1
175
     1
 42
1.0
 92
        8
 66
     7
 43
1.0
 76
     1
 77
     6
 78
     2
 67
     7
 79
     5
170
     0
171
     0
290
     0
174
     0
 93
        1
 44
0.0
173
     0
291
     1
 45
0.0
1001
ACAD
1000
AcDbSavedByObjectVersion
1070
     0
  0
VISUALSTYLE
  5
2CD3
102
{ACAD_XDICTIONARY
360
32B9
102
}
102
{ACAD_REACTORS
330
2CD2
102
}
330
2CD2
100
AcDbVisualStyle
  2

 70
     0
 71
     2
 72
     1
 73
     1
 90
        2
 40
-0.6
 41
30.0
 62
     5
 63
     7
421
 16777215
 74
     0
 91
        0
 64
     7
 65
   257
 75
     1
175
     1
 42
1.0
 92
        8
 66
     7
 43
1.0
 76
     1
 77
     6
 78
     2
 67
     7
 79
     5
170
     0
171
     0
290
     0
174
     0
 93
       13
 44
0.0
173
     0
291
     1
 45
0.0
1001
ACAD
1000
AcDbSavedByObjectVersion
1070
     0
  0
VISUALSTYLE
  5
2CD4
102
{ACAD_XDICTIONARY
360
32BB
102
}
102
{ACAD_REACTORS
330
2CD2
102
}
330
2CD2
100
AcDbVisualStyle
  2

 70
     1
 71
     2
 72
     1
 73
     1
 90
        2
 40
-0.6
 41
30.0
 62
     5
 63
     7
421
 16777215
 74
     1
 91
        0
 64
     7
 65
   257
 75
     1
175
     1
 42
1.0
 92
        0
 66
   257
 43
1.0
 76
     1
 77
     6
 78
     2
 67
     7
 79
     5
170
     0
171
     0
290
     0
174
     0
 93
       13
 44
0.0
173
     0
291
     1
 45
0.0
1001
ACAD
1000
AcDbSavedByObjectVersion
1070
     0
  0
VISUALSTYLE
  5
2CD5
102
{ACAD_XDICTIONARY
360
32BD
102
}
102
{ACAD_REACTORS
330
2CD2
102
}
330
2CD2
100
AcDbVisualStyle
  2

 70
     2
 71
     2
 72
     2
 73
     1
 90
        2
 40
-0.6
 41
30.0
 62
     5
 63
     7
421
 16777215
 74
     0
 91
        0
 64
     7
 65
   257
 75
     1
175
     1
 42
1.0
 92
        0
 66
     7
 43
1.0
 76
     1
 77
     6
 78
     2
 67
     7
 79
     5
170
     0
171
     0
290
     0
174
     0
 93
       13
 44
0.0
173
     0
291
     1
 45
0.0
1001
ACAD
1000
AcDbSavedByObjectVersion
1070
     0
  0
VISUALSTYLE
  5
2CD6
102
{ACAD_XDICTIONARY
360
32BF
102
}
102
{ACAD_REACTORS
330
2CD2
102
}
330
2CD2
100
AcDbVisualStyle
  2

 70
     3
 71
     2
 72
     2
 73
     1
 90
        2
 40
-0.6
 41
30.0
 62
     5
 63
     7
421
 16777215
 74
     1
 91
        0
 64
     7
 65
   257
 75
     1
175
     1
 42
1.0
 92
        0
 66
   257
 43
1.0
 76
     1
 77
     6
 78
     2
 67
     7
 79
     5
170
     0
171
     0
290
     0
174
     0
 93
       13
 44
0.0
173
     0
291
     1
 45
0.0
1001
ACAD
1000
AcDbSavedByObjectVersion
1070
     0
  0
VISUALSTYLE
  5
2CDA
102
{ACAD_XDICTIONARY
360
32C7
102
}
102
{ACAD_REACTORS
330
2CD2
102
}
330
2CD2
100
AcDbVisualStyle
  2

 70
     6
 71
     1
 72
     2
 73
     2
 90
        0
 40
-0.6
 41
-30.0
 62
     5
 63
     7
421
 16777215
 74
     2
 91
        2
 64
     7
 65
   257
 75
     2
175
     1
 42
40.0
 92
        0
 66
   257
 43
1.0
 76
     1
 77
     6
 78
     2
 67
     7
 79
     3
170
     0
171
     0
290
     0
174
     0
 93
        1
 44
0.0
173
     0
291
     0
 45
0.0
1001
ACAD
1000
AcDbSavedByObjectVersion
1070
     0
  0
VISUALSTYLE
  5
2CE8
102
{ACAD_XDICTIONARY
360
32E3
102
}
102
{ACAD_REACTORS
330
2CD2
102
}
330
2CD2
100
AcDbVisualStyle
  2

 70
    20
 71
     2
 72
     2
 73
     0
 90
        0
 40
-0.6
 41
-30.0
 62
     5
 63
     7
421
 16777215
 74
     1
 91
        4
 64
     7
 65
   257
 75
     1
175
     1
 42
1.0
 92
       10
 66
     7
 43
1.0
 76
     1
 77
     6
 78
     2
 67
     7
 79
     5
170
     0
171
     0
290
     0
174
     0
 93
        1
 44
0.0
173
     0
291
     1
 45
0.0
1001
ACAD
1000
AcDbSavedByObjectVersion
1070
     0
  0
VISUALSTYLE
  5
2CE0
102
{ACAD_XDICTIONARY
360
32D3
102
}
102
{ACAD_REACTORS
330
2CD2
102
}
330
2CD2
100
AcDbVisualStyle
  2

 70
    14
 71
     2
 72
     2
 73
     0
 90
        0
 40
-0.6
 41
-30.0
 62
     5
 63
     7
421
 16777215
 74
     1
 91
        4
 64
     7
 65
   257
 75
     7
175
     7
 42
1.0
 92
        8
 66
     7
 43
1.0
 76
     1
 77
     6
 78
     2
 67
     7
 79
     5
170
     0
171
     0
290
     0
174
     0
 93
        1
 44
0.0
173
     0
291
     1
 45
0.0
1001
ACAD
1000
AcDbSavedByObjectVersion
1070
     0
  0
VISUALSTYLE
  5
2CE9
102
{ACAD_XDICTIONARY
360
32E5
102
}
102
{ACAD_REACTORS
330
2CD2
102
}
330
2CD2
100
AcDbVisualStyle
  2

 70
    21
 71
     2
 72
     2
 73
     0
 90
        0
 40
-0.6
 41
-30.0
 62
     5
 63
     7
421
 16777215
 74
     1
 91
        4
 64
     7
 65
   257
 75
     1
175
     1
 42
1.0
 92
        9
 66
     7
 43
1.0
 76
     1
 77
     6
 78
     2
 67
     7
 79
     5
170
     0
171
     0
290
     0
174
     0
 93
        1
 44
0.0
173
     0
291
     1
 45
0.0
1001
ACAD
1000
AcDbSavedByObjectVersion
1070
     0
  0
VISUALSTYLE
  5
2CDC
102
{ACAD_XDICTIONARY
360
32CB
102
}
102
{ACAD_REACTORS
330
2CD2
102
}
330
2CD2
100
AcDbVisualStyle
  2

 70
     8
 71
     2
 72
     2
 73
     0
 90
        2
 40
-0.6
 41
30.0
 62
     5
 63
     7
421
 16777215
 74
     0
 91
        0
 64
     7
 65
   257
 75
     1
175
     1
 42
1.0
 92
        8
 66
   257
 43
1.0
 76
     1
 77
     6
 78
     2
 67
     7
 79
     3
170
     0
171
     0
290
     0
174
     0
 93
       13
 44
0.0
173
     0
291
     0
 45
0.0
1001
ACAD
1000
AcDbSavedByObjectVersion
1070
     0
  0
VISUALSTYLE
  5
2CE7
102
{ACAD_XDICTIONARY
360
32E1
102
}
102
{ACAD_REACTORS
330
2CD2
102
}
330
2CD2
100
AcDbVisualStyle
  2

 70
    27
 71
     2
 72
     2
 73
     1
 90
        2
 40
-0.6
 41
30.0
 62
     5
 63
     7
421
 16777215
 74
     0
 91
        4
 64
     7
 65
   257
 75
     1
175
     1
 42
1.0
 92
        8
 66
   257
 43
1.0
 76
     1
 77
     6
 78
     2
 67
     8
425
  7895160
 79
     3
170
     0
171
     0
290
     0
174
     0
 93
        5
 44
0.0
173
     0
291
     0
 45
0.0
1001
ACAD
1000
AcDbSavedByObjectVersion
1070
     0
  0
VISUALSTYLE
  5
2CE6
102
{ACAD_XDICTIONARY
360
32DF
102
}
102
{ACAD_REACTORS
330
2CD2
102
}
330
2CD2
100
AcDbVisualStyle
  2

 70
    26
 71
     2
 72
     2
 73
     1
 90
        2
 40
-0.6
 41
30.0
 62
     5
 63
     7
421
 16777215
 74
     1
 91
       10
 64
     7
 65
   257
 75
     2
175
     1
 42
1.0
 92
        8
 66
   257
 43
1.0
 76
     1
 77
     6
 78
     2
 67
     7
 79
     3
170
     0
171
     0
290
     0
174
     0
 93
        5
 44
0.0
173
     0
291
     0
 45
0.0
1001
ACAD
1000
AcDbSavedByObjectVersion
1070
     0
  0
VISUALSTYLE
  5
2CE3
102
{ACAD_XDICTIONARY
360
32D9
102
}
102
{ACAD_REACTORS
330
2CD2
102
}
330
2CD2
100
AcDbVisualStyle
  2

 70
    23
 71
     2
 72
     2
 73
     3
 90
        0
 40
-0.6
 41
-30.0
 62
     5
 63
     7
421
 16777215
 74
     2
 91
        2
 64
     7
 65
     7
 75
     1
175
     1
 42
40.0
 92
        8
 66
     7
 43
1.0
 76
     1
 77
     6
 78
     2
 67
     7
 79
     3
170
     0
171
     0
290
     0
174
     0
 93
        1
 44
0.0
173
     0
291
     0
 45
0.0
1001
ACAD
1000
AcDbSavedByObjectVersion
1070
     0
  0
VISUALSTYLE
  5
2CE4
102
{ACAD_XDICTIONARY
360
32DB
102
}
102
{ACAD_REACTORS
330
2CD2
102
}
330
2CD2
100
AcDbVisualStyle
  2

 70
    24
 71
     1
 72
     2
 73
     2
 90
        0
 40
-0.6
 41
-30.0
 62
     5
 63
     7
421
 16777215
 74
     2
 91
        2
 64
     7
 65
     7
 75
     1
175
     1
 42
40.0
 92
       11
 66
     7
 43
1.0
 76
     1
 77
     6
 78
     2
 67
     7
 79
     6
170
     0
171
     0
290
     0
174
     0
 93
        1
 44
0.0
173
     0
291
     0
 45
0.0
1001
ACAD
1000
AcDbSavedByObjectVersion
1070
     0
  0
VISUALSTYLE
  5
2CDF
102
{ACAD_XDICTIONARY
360
32D1
102
}
102
{ACAD_REACTORS
330
2CD2
102
}
330
2CD2
100
AcDbVisualStyle
  2

 70
    13
 71
     2
 72
     2
 73
     0
 90
        0
 40
-0.6
 41
-30.0
 62
     5
 63
     7
421
 16777215
 74
     1
 91
        4
 64
     7
 65
   257
 75
     1
175
     1
 42
1.0
 92
       12
 66
     7
 43
1.0
 76
     1
 77
     6
 78
     2
 67
     7
 79
     5
170
     0
171
     0
290
     0
174
     0
 93
        1
 44
0.0
173
     0
291
     1
 45
0.0
1001
ACAD
1000
AcDbSavedByObjectVersion
1070
     0
  0
VISUALSTYLE
  5
2CD9
102
{ACAD_XDICTIONARY
360
32C5
102
}
102
{ACAD_REACTORS
330
2CD2
102
}
330
2CD2
100
AcDbVisualStyle
  2

 70
     5
 71
     0
 72
     2
 73
     0
 90
        0
 40
-0.6
 41
-30.0
 62
     5
 63
     7
421
 16777215
 74
     1
 91
        4
 64
     7
 65
   257
 75
     1
175
     1
 42
1.0
 92
        0
 66
   257
 43
1.0
 76
     1
 77
     6
 78
     2
 67
     7
 79
     3
170
     0
171
     0
290
     0
174
     0
 93
        1
 44
0.0
173
     0
291
     0
 45
0.0
1001
ACAD
1000
AcDbSavedByObjectVersion
1070
     0
  0
VISUALSTYLE
  5
2CE5
102
{ACAD_XDICTIONARY
360
32DD
102
}
102
{ACAD_REACTORS
330
2CD2
102
}
330
2CD2
100
AcDbVisualStyle
  2

 70
    25
 71
     2
 72
     2
 73
     1
 90
        1
 40
0.5
 41
-30.0
 62
     5
 63
     7
421
 16777215
 74
     1
 91
        0
 64
     7
 65
   257
 75
     1
175
     1
 42
1.0
 92
        8
 66
     7
 43
1.0
 76
     1
 77
     6
 78
     2
 67
     7
 79
     3
170
     0
171
     0
290
     0
174
     0
 93
       13
 44
0.0
173
     0
291
     0
 45
0.0
1001
ACAD
1000
AcDbSavedByObjectVersion
1070
     0
  0
DICTIONARYVAR
  5
2DA8
102
{ACAD_REACTORS
330
166
102
}
330
166
100
DictionaryVariables
280
     0
  1
1:1
  0
DICTIONARYVAR
  5
2DA7
102
{ACAD_REACTORS
330
166
102
}
330
166
100
DictionaryVariables
280
     0
  1
STANDARD
  0
DICTIONARYVAR
  5
167
102
{ACAD_REACTORS
330
166
102
}
330
166
100
DictionaryVariables
280
     0
  1
STANDARD
  0
DICTIONARYVAR
  5
255
102
{ACAD_REACTORS
330
166
102
}
330
166
100
DictionaryVariables
280
     0
  1
2
  0
DICTIONARYVAR
  5
254
102
{ACAD_REACTORS
330
166
102
}
330
166
100
DictionaryVariables
280
     0
  1
1
  0
DICTIONARYVAR
  5
256
102
{ACAD_REACTORS
330
166
102
}
330
166
100
DictionaryVariables
280
     0
  1

  0
DICTIONARYVAR
  5
32B5
102
{ACAD_REACTORS
330
166
102
}
330
166
100
DictionaryVariables
280
     0
  1
2
  0
DICTIONARY
  5
2D27
330
26
100
AcDbDictionary
280
     1
281
     1
  3
ADSK_XREC_LAYOUTTHUMBNAIL
360
2D28
  0
DICTIONARY
  5
2CC3
330
2CC2
100
AcDbDictionary
280
     1
281
     1
  3
ACAD_XREC_ROUNDTRIP
360
3038
  3
BUMPTILE
360
2CC5
  3
DIFFUSETILE
360
2CC4
  3
OPACITYTILE
360
2CC8
  3
REFLECTIONTILE
360
2CC7
  3
REFRACTIONTILE
360
2CC9
  3
SPECULARTILE
360
2CC6
  0
DICTIONARY
  5
2CBB
330
2CBA
100
AcDbDictionary
280
     1
281
     1
  3
ACAD_XREC_ROUNDTRIP
360
3037
  3
BUMPTILE
360
2CBD
  3
DIFFUSETILE
360
2CBC
  3
OPACITYTILE
360
2CC0
  3
REFLECTIONTILE
360
2CBF
  3
REFRACTIONTILE
360
2CC1
  3
SPECULARTILE
360
2CBE
  0
DICTIONARY
  5
2CCB
330
2CCA
100
AcDbDictionary
280
     1
281
     1
  3
ACAD_XREC_ROUNDTRIP
360
3039
  3
BUMPTILE
360
2CCD
  3
DIFFUSETILE
360
2CCC
  3
OPACITYTILE
360
2CD0
  3
REFLECTIONTILE
360
2CCF
  3
REFRACTIONTILE
360
2CD1
  3
SPECULARTILE
360
2CCE
  0
DICTIONARY
  5
2D6D
330
1E
100
AcDbDictionary
280
     1
281
     1
  3
ACAD_ROUNDTRIP_2008_TABLESTYLE_CELLSTYLEMAP
360
32B6
  3
ACAD_XREC_ROUNDTRIP
360
32B8
  0
DICTIONARY
  5
32C3
330
2CD8
100
AcDbDictionary
280
     1
281
     1
  3
ACAD_XREC_ROUNDTRIP
360
32C4
  0
DICTIONARY
  5
32C1
330
2CD7
100
AcDbDictionary
280
     1
281
     1
  3
ACAD_XREC_ROUNDTRIP
360
32C2
  0
DICTIONARY
  5
32CF
330
2CDE
100
AcDbDictionary
280
     1
281
     1
  3
ACAD_XREC_ROUNDTRIP
360
32D0
  0
DICTIONARY
  5
32D7
330
2CE2
100
AcDbDictionary
280
     1
281
     1
  3
ACAD_XREC_ROUNDTRIP
360
32D8
  0
DICTIONARY
  5
32C9
330
2CDB
100
AcDbDictionary
280
     1
281
     1
  3
ACAD_XREC_ROUNDTRIP
360
32CA
  0
DICTIONARY
  5
32CD
330
2CDD
100
AcDbDictionary
280
     1
281
     1
  3
ACAD_XREC_ROUNDTRIP
360
32CE
  0
DICTIONARY
  5
32E7
330
2CEA
100
AcDbDictionary
280
     1
281
     1
  3
ACAD_XREC_ROUNDTRIP
360
32E8
  0
DICTIONARY
  5
32D5
330
2CE1
100
AcDbDictionary
280
     1
281
     1
  3
ACAD_XREC_ROUNDTRIP
360
32D6
  0
DICTIONARY
  5
32B9
330
2CD3
100
AcDbDictionary
280
     1
281
     1
  3
ACAD_XREC_ROUNDTRIP
360
32BA
  0
DICTIONARY
  5
32BB
330
2CD4
100
AcDbDictionary
280
     1
281
     1
  3
ACAD_XREC_ROUNDTRIP
360
32BC
  0
DICTIONARY
  5
32BD
330
2CD5
100
AcDbDictionary
280
     1
281
     1
  3
ACAD_XREC_ROUNDTRIP
360
32BE
  0
DICTIONARY
  5
32BF
330
2CD6
100
AcDbDictionary
280
     1
281
     1
  3
ACAD_XREC_ROUNDTRIP
360
32C0
  0
DICTIONARY
  5
32C7
330
2CDA
100
AcDbDictionary
280
     1
281
     1
  3
ACAD_XREC_ROUNDTRIP
360
32C8
  0
DICTIONARY
  5
32E3
330
2CE8
100
AcDbDictionary
280
     1
281
     1
  3
ACAD_XREC_ROUNDTRIP
360
32E4
  0
DICTIONARY
  5
32D3
330
2CE0
100
AcDbDictionary
280
     1
281
     1
  3
ACAD_XREC_ROUNDTRIP
360
32D4
  0
DICTIONARY
  5
32E5
330
2CE9
100
AcDbDictionary
280
     1
281
     1
  3
ACAD_XREC_ROUNDTRIP
360
32E6
  0
DICTIONARY
  5
32CB
330
2CDC
100
AcDbDictionary
280
     1
281
     1
  3
ACAD_XREC_ROUNDTRIP
360
32CC
  0
DICTIONARY
  5
32E1
330
2CE7
100
AcDbDictionary
280
     1
281
     1
  3
ACAD_XREC_ROUNDTRIP
360
32E2
  0
DICTIONARY
  5
32DF
330
2CE6
100
AcDbDictionary
280
     1
281
     1
  3
ACAD_XREC_ROUNDTRIP
360
32E0
  0
DICTIONARY
  5
32D9
330
2CE3
100
AcDbDictionary
280
     1
281
     1
  3
ACAD_XREC_ROUNDTRIP
360
32DA
  0
DICTIONARY
  5
32DB
330
2CE4
100
AcDbDictionary
280
     1
281
     1
  3
ACAD_XREC_ROUNDTRIP
360
32DC
  0
DICTIONARY
  5
32D1
330
2CDF
100
AcDbDictionary
280
     1
281
     1
  3
ACAD_XREC_ROUNDTRIP
360
32D2
  0
DICTIONARY
  5
32C5
330
2CD9
100
AcDbDictionary
280
     1
281
     1
  3
ACAD_XREC_ROUNDTRIP
360
32C6
  0
DICTIONARY
  5
32DD
330
2CE5
100
AcDbDictionary
280
     1
281
     1
  3
ACAD_XREC_ROUNDTRIP
360
32DE
  0
XRECORD
  5
2D28
102
{ACAD_REACTORS
330
2D27
102
}
330
2D27
100
AcDbXrecord
280
     1
310
28000000000100006F0000000100080000000000006F0000000000000000000000010000000000000000000000000000FFFFFF000000000000000000000000000000000000000000000000000000000000000000330000006600000099000000CC000000FF00000000330000333300006633000099330000CC330000FF3300
310
0000660000336600006666000099660000CC660000FF66000000990000339900006699000099990000CC990000FF99000000CC000033CC000066CC000099CC0000CCCC0000FFCC000000FF000033FF000066FF000099FF0000CCFF0000FFFF000000003300330033006600330099003300CC003300FF003300003333003333
310
33006633330099333300CC333300FF33330000663300336633006666330099663300CC663300FF66330000993300339933006699330099993300CC993300FF99330000CC330033CC330066CC330099CC3300CCCC3300FFCC330000FF330033FF330066FF330099FF3300CCFF3300FFFF330000006600330066006600660099
310
006600CC006600FF00660000336600333366006633660099336600CC336600FF33660000666600336666006666660099666600CC666600FF66660000996600339966006699660099996600CC996600FF99660000CC660033CC660066CC660099CC6600CCCC6600FFCC660000FF660033FF660066FF660099FF6600CCFF6600
310
FFFF660000009900330099006600990099009900CC009900FF00990000339900333399006633990099339900CC339900FF33990000669900336699006666990099669900CC669900FF66990000999900339999006699990099999900CC999900FF99990000CC990033CC990066CC990099CC9900CCCC9900FFCC990000FF99
310
0033FF990066FF990099FF9900CCFF9900FFFF99000000CC003300CC006600CC009900CC00CC00CC00FF00CC000033CC003333CC006633CC009933CC00CC33CC00FF33CC000066CC003366CC006666CC009966CC00CC66CC00FF66CC000099CC003399CC006699CC009999CC00CC99CC00FF99CC0000CCCC0033CCCC0066CC
310
CC0099CCCC00CCCCCC00FFCCCC0000FFCC0033FFCC0066FFCC0099FFCC00CCFFCC00FFFFCC000000FF003300FF006600FF009900FF00CC00FF00FF00FF000033FF003333FF006633FF009933FF00CC33FF00FF33FF000066FF003366FF006666FF009966FF00CC66FF00FF66FF000099FF003399FF006699FF009999FF00CC
310
99FF00FF99FF0000CCFF0033CCFF0066CCFF0099CCFF00CCCCFF00FFCCFF0000FFFF0033FFFF0066FFFF0099FFFF00CCFFFF00FFFFFF00000000000D0D0D001A1A1A00282828003535350043434300505050005D5D5D006B6B6B00787878008686860093939300A1A1A100AEAEAE00BBBBBB00C9C9C900D6D6D600E4E4E400
310
F1F1F100FFFFFF000000000000000000000000000000000000000000000000000000000000000000000000000000000000000000000000000000000000000000000000000000000000000000000000000000000000000000000000000000000000000000F5F5F5F5F5F5F5F5F5F5F5F5F5F5F5F5F5F5F5F5F5F5F5F5F5F5F5
310
F5F5F5F5F5F5F5F5F5F5F5F5F5F5F5F5F5F5F5F5F5F5F5F5F5F5F5F5F5F5F5F5F5F5F5F5F5F5F5F5F5F5F5F5F5F5F5F5F5F5F5F5F5F5F5F5F5F5F5F5F5F5F5F5F5F5F5F5F5F5F5F5F5F5F5F5F5F5F5F5F5F5F5F5F5F5F5F5F5F5F5F5F5F5F5F5F5F5F5F5F5F5F5F5F5F5F5F5F5F5F5F5F5F5F5F5F5F5F5F5F5F5F5F5F50000
310
000000000000000000000000000000000000000000000000000000000000000000000000000000000000000000000000000000000000000000000000000000000000000000000000000000000000000000000000000000000000000000000000000000000000F5F5F5F5F5F5F5F5F5F5F5F5F5F5F5F5F5F5F5F5F5F5F5F5F5
310
F5F5F5F5F5F5F5F5F5F5F5F5F5F5F5F5F5F5F5F5F5F5F5F5F5F5F5F5F5F5F5F5F5F5F5F5F5F5F5F5F5F5F5F5F5F5F5F5F5F5F5F5F5F5F5F5F5F5F5F5F5F5F5F5F5F5F5F5F5F5F5F5F5F5F5F5F5F5F5F5F5F5F5F5F5F5F5F5F5F5F5F5F5F5F5F5F5F5F5F5F5F5F5F5F5F5F5F5F5F5F5F5F5F5F5F5F5F5F5F5F5F5F5F5F5F5F5
310
0000000000000000000000000000000000000000000000000000000000000000000000000000000000000000000000000000000000000000000000000000000000000000000000000000000000000000000000000000000000000000000000000000000000000000F5F5F5F5F5F5F5F5F5F5F5F5F5F5F5F5F5F5F5F5F5F5F5
310
F5F5F5F5F5F5F5F5F5F5F5F5F5F5F5F5F5F5F5F5F5F50000000000000000000000000000000000000000000000000000000000000000000000000000000000000000000000000000000000000000000000000000000000F5F5F5F5F5F5F5000000000000F5F5F500000000000000F5F5F5F5F5F50000000000000000000000
310
00F50000000000000000000000000000000000000000000000000000000000000000000000000000000000000000000000000000000000000000000000000000000000000000000000000000000000000000000000000000000000000000000000000000000000000000F5F5F5F5F5F5F5F5F5F5F5F5F5F5F5F5F5F5F5F5F5
310
F5F5F5F5F5F5F5F5F5F5F5F5F5F5F5F5F5F5F5F5F5F5F5F50000000000000000000000000000000000000000000000000000000000000000000000000000000000000000000000000000000000000000000000000000000000F5F5F5F5F5F5F5F5F5F5F5F5F5F5F5F5F5F5F5F5F5F5F5F5F5F5F5F5F5F5F5F5F5F5F5F5F5F5
310
F5F5F5F50000000000000000000000000000000000000000000000000000000000000000000000000000000000000000000000000000000000000000000000000000000000000000000000000000000000000000000000000000000000000000000000000000000000000000F5F5F5F5F5F5F5F5F5F5F5F5F5F5F5F5F5F5F5
310
F5F5F5F5F5F5F5F5F5F5F5F5F5F5F5F5F5F5F5F5F5F5F5F5F5F5F5F5000000000000000000000000000000000000000000000000000000000000000000000000000000000000000000000000000000000000000000000000000000F5F50000000000F5F5F5000000F5000000F5F500000000F50000F5F5F5F5F5F5F5F5F5F5
310
F5F5F5F5F5F50000000000000000000000000000000000000000000000000000000000000000000000000000000000000000000000000000000000000000000000000000000000000000000000000000000000000000000000000000000000000000000000000000000000000000F5F5F5F5F5F5F5F5F5F5F5F5F5F5F5F5F5
310
F5F5F5F5F5F5F5F5F5F5F5F5F5F5F5F5F5F5F5F5F5F5F5F5F5F5F5F5F5F5000000000000000000000000000000000000000000000000000000000000000000000000000000000000000000000000000000000000000000000000000000F5F5F5F5F5F500000000000000F5F5F5F5000000000000F5F5F5F5F5000000000000
310
00000000000000F50000000000000000000000000000000000000000000000000000000000000000000000000000000000000000000000000000000000000000000000000000000000000000000000000000000000000000000000000000000000000000000000000000000000000000F50000000000000000000000000000
310
0000000000000000000000000000000000000000000000000000000000000000000000000000000000000000000000000000000000000000000000000000000000000000000000000000000000000000000000000000000000000000000000F5F5F5F5F5F5F5F5F5F5F5F5F5F5F5F5F5F5F5F5F5F5F5F5F5F5F5F5F5F5F5F5
310
F5F5F5F5F5F5F5F5F5F50000000000000000000000000000000000000000000000000000000000000000000000000000000000000000000000000000000000000000000000000000000000000000000000000000000000000000000000000000000000000000000000000000000000000000F5000000000000000000000000
310
00000000000000000000000000000000000000000000000000000000000000000000000000000000000000000000000000000000000000000000000000000000000000000000000000000000000000000000000000000000000000000000000000F5F500000000000000000000000000000000000000000000000000000000
310
0000000000000000000000F50000000000000000000000000000000000000000000000000000000000000000000000000000000000000000000000000000000000000000000000000000000000000000000000000000000000000000000000000000000000000000000000000000000000000000F500000000000000000000
310
000000000000000000000000000000000000000000000000000000000000000000000000000000000000000000000000000000000000000000000000000000000000000000000000000000000000000000000000000000000000000000000000000000F5F50000000000000000F5F5F5F5F5F5F50000000000000000000000
310
00000000000000000000000000F50000000000000000000000000000000000000000000000000000000000000000000000000000000000000000000000000000000000000000000000000000000000000000000000000000000000000000000000000000000000000000000000000000000000000000F50000000000000000
310
0000000000000000000000000000000000000000000000000000000000000000000000000000000000000000000000000000000000000000000000000000000000000000000000000000000000000000000000000000000000000000000000000000000000F5F50000000000000000F5F5F5F5F5F5F5000000000000000000
310
000000000000000000000000000000F50000000000000000000000000000000000000000000000000000000000000000000000000000000000000000000000000000000000000000000000000000000000000000000000000000000000000000000000000000000000000000000000000000000000000000F5000000000000
310
00000000000000000000000000000000000000000000000000000000000000000000000000000000000000000000000000000000000000000000000000000000000000000000000000000000000000000000000000000000000000000000000000000000000000F5F5F5F5F5F5F5F500000000000000000000000000000000
310
0000000000000000000000000000000000F50000000000000000000000000000000000000000000000000000000000000000000000000000000000000000000000000000000000000000000000000000000000000000000000000000000000000000000000000000000000000000000000000000000000000000F500000000
310
000000000000000000000000000000000000000000000000000000000000000000000000000000000000000000000000000000000000000000000000000000000000000000000000000000000000000000000000000000000000000000000000000000000000000000F5F5F5F5F5F5F5F50000000000000000000000000000
310
00000000000000000000000000000000000000F50000000000000000000000000000000000000000000000000000000000000000000000000000000000000000000000000000000000000000000000000000000000000000000000000000000000000000000000000000000000000000000000000000000000000000F50000
310
000000000000F5F5F5F5F5F5F5F5F5F5F5F5F500D80000F5F5F5F5F5F5F5F5F5F5F5F5F5D800000000000000000000000000000000D800F5F5F5F5F5F5F5F5F5F5F5F5F50000D800F5F5F5F5F5F5F5F5F5F5F5F5F500000000000000000000000000000000000000000000F5F5F5F5F5F5F5F5F5F5F5F5F5F5F5F5F5F5F5F5
310
F5F5F5F5F5F5F5F5F5F5F5F5F5F5F5F5F5F5F5F5F5F50000000000000000000000000000000000000000000000000000000000000000000000000000000000000000000000000000000000000000000000000000000000000000000000000000000000000000000000000000000000000000000000000000000000000000F5
310
0000000000000000F50000000000000000000000F500D80000F50000000000000000000000F5D800000000000000000000000000000000D800F50000000000000000000000F50000D800F50000000000000000000000F50000F5F5F50000000000000000000000000000000000F5F5F5F5F5F5F5F5F5F5F5F5F5F5F5F5F5F5
310
F5F5F5F5F5F5F5F5F5F5F5F5F5F5F5F5F5F5F5F5F5F5F5F500000000000000000000000000000000000000000000000000000000000000000000000000000000000000000000000000000000000000000000000000000000000000000000000000000000000000000000000000000000000000000000000000000000000000
310
00F50000000000F5F5F5F5F5F5F5F5F5F5F5F5F5F5F5F5F5D8F5F5F5F5F5F5F5F5F5F5F5F5F5F5F5D8F5F5F5F5F5F5F5F5F5F5F5F5F5F5F5F5D8F5F5F5F5F5F5F5F5F5F5F5F5F5F5F5F5D8F5F5F5F5F5F5F5F5F5F5F5F5F5F5F5F5F5F5F50000000000000000000000000000000000F5F5F5F5F5F5F5F5F5F5F5F5F5F5F5F5
310
F5F5F5F5F5F5F5F5F5F5F5F5F5F5F5F5F5F5F5F5F5F5F5F5F5F50000000000000000000000000000000000000000000000000000000000000000000000000000000000000000000000000000000000000000000000000000000000000000000000000000000000000000000000000000000000000000000000000000000000
310
000000F50000000000F5F5F5F500000000000000000000F5F5F5F5F5F5F500000000000000000000F5F5F5F5F5F5F5F5F5F5F5F5F5F5F5F5F5F5F5F5F5F5F500000000000000000000F5F5F5F5F5F5F500000000000000000000F5F5D8F5F5F50000000000000000000000000000000000F5F5F5F5F5F5F5F5F5F5F5F5F5F5
310
F5F5F5F5F5F5F5F5F5F5F5F5F5F5F5F5F5F5F5F5F5F5F5F5F5F5F5F5000000000000000000000000000000000000000000000000000000000000000000000000000000000000000000000000000000000000000000000000000000000000000000000000000000000000000000000000000000000000000000000000000000
310
0000000000F50000000000F5F5000000000000000000000000000000D8000000000000000000000000000000D800000000000000000000000000000000D800000000000000000000000000000000D8000000000000000000000000000000F50000000000000000000000000000000000000000F5F5F5F5F5F5F500F5F5F5F5
310
F5F5F5F5F5F5F5F5F5F5F5F5F5F5F5F5F5F5F5F5F5F5F5F5F5F5F5F5F5F500000000000000000000000000000000000000000000000000000000000000000000000000000000000000000000000000000000000000000000000000000000000000000000000000000000000000000000000000000000000000000000000000
310
00000000000000F50000000000F5F5000000000000000000000000000000D800000000000000000000000000002DD800000000000000000000000000000000D800000000000000000000000000000000D8000000000000000000000000000000F50000000000000000000000000000000000000000F5F5F5F5F5F5F5F5F5F5
310
F5F5F5F5F5F5F5F5F5F5F5F5F5F5F5F5F5F5F5F5F5F5F5F5F5F5F5F5F5F5F5F50000000000000000000000000000000000000000000000000000000000000000000000000000000000000000000000000000000000000000000000000000000000000000000000000000000000000000000000000000000000000000000000
310
000000000000000000F50000000000F5F5000000000000000000000000000000D8000000000000000000000000002D2DD800000000000000000000000000000000D80000000000000000F5F5F5F5F5000000D8000000000000000000000000000000F50000000000000000000000000000000000000000000000000000F500
310
0000F5F5F5000000F50000F5F5F5F500000000F5000000F5F5F500000000000000F5000000000000000000000000000000000000000000000000000000000000000000000000000000000000000000000000000000000000000000000000000000000000000000000000000000000000000000000000000000000000000000
310
0000000000000000000000F50000000000F5F5000000000000000000000000000000D80000000000000000000000002D2D00D800000000000000000000000000000000D80000000000000000F5F5F5F5F5000000D8000000000000000000000000000000F50000000000000000000000000000000000000000000000000000
310
F5000000000000000000F500000000000000000000F5000000F5F5F500000000000000F500000000000000000000000000000000000000000000000000000000000000000000000000000000000000000000000000000000000000000000000000000000000000000000000000000000000000000000000000000000000000
310
00000000000000000000000000F50000000000F5F5000000000000000000000000000000D800002D2D000000000000002D2D0000D800000000000000000000000000000000D8000000C3BEBEBEBEBEBEBEBE2D2D0000D8000000000000000000000000000000F5000000000000000000000000000000000000000000000000
310
0000F5F5F5F5F5F5F5F5F5F5F5F5F5F5F5F5F5F5F5F5F5F5F5F5F5F5F5F5F5F5F5F5F5F5F5F50000000000000000000000000000000000000000000000000000000000000000000000000000000000000000000000000000000000000000000000000000000000000000000000000000000000000000000000000000000000
310
000000000000000000000000000000F50000000000F5F5000000000000000000000000000000D80000002D2D00000000002D2D000000D800000000000000000000000000000000D8000000C3BEBEBEBEBEBEBEDCDCDC0000D8000000000000000000000000000000F500000000000000000000000000000000000000000000
310
00000000F5000000F5F500000000F500F5F5F5F50000000000F50000F5F5F5F5F5000000000000F5000000000000000000000000000000000000000000000000000000000000000000000000000000000000000000000000000000000000000000000000000000000000000000000000000000000000000000000000000000
310
0000000000000000000000000000000000F50000000000F5F5000000000000000000000000000000D8000000002D2D0000002D2D00000000D8000000000000C3F5F5F5F5F5F5DCF5F5F5F5F5F5F5F5F5F5F5F5F5F5F5F5F5F5F5F5F5BEDCDCDCDCDCDCBEDC0000000000F50000000000000000000000000000000000000000
310
000000000000F5F5F5F5F5F5F5F5F5F5F5F5F5F5F5F5F5F5F5F5F5F5F5F5F5F5F5F5F5F5F5F5F5F5F5F500000000000000000000000000000000000000000000000000000000000000000000000000000000000000000000000000000000000000000000000000000000000000000000000000000000000000000000000000
310
00000000000000000000000000000000000000F50000000000F5F5000000000000000000000000000000D800000000002D2D002D2D0000000000D8000000000000C3F5F5F5F5F5F5F5F5F5F5F5F5F5F5F5F5F5F5F5F5F5F5F5F5F5F5F5F5BEBEBEBEBEF5F5F5F5F500000000F5000000000000000000000000000000000000
310
0000000000000000F5000000F5F500000000F500F5F5F5F50000000000F5000000F5F5F5F5000000000000F50000000000000000000000000000000000000000000000000000000000000000000000000000000000000000000000000000000000000000000000000000000000000000000000000000000000000000000000
310
000000000000000000000000000000000000000000F50000000000F5F5000000000000000000000000000000D80000000000002D2D2D000000000000D8000000002D00F5F50000000000000000D800000000000000000000000000000000D8000000000000F5F5F5F5F500000000F500000000000000000000000000000000
310
00000000000000000000F5000000F5F500000000F500000000000000000000F5000000F5F5F5F5000000000000F5000000000000000000000000000000000000000000000000000000000000000000000000000000000000000000000000000000000000000000000000000000000000000000000000000000000000000000
310
0000000000000000000000000000000000000000000000F50000000000F5F5000000000000000000000000000000D8000000000000002D2D000000000000D80000002D2D2DF5F50000000000000000D800000000000000000000000000000000D8000000000000000000000000000000F50000000000000000000000000000
310
000000000000000000000000F5F5F5F5F5F5F5F5F5F5F5F5F5F5F5F5F5F5F5F5F5F5F5F5F5F5F5F5F5F5F5F5F5F5F5F500000000000000000000000000000000000000000000000000000000000000000000000000000000000000000000000000000000000000000000000000000000000000000000000000000000000000
310
00000000000000000000000000000000000000000000000000F50000000000F5F5000000000000000000000000000000D800000000000000002D2D0000000000D800002D2D002D2DF50000000000000000D800000000000000000000000000000000D8000000000000000000000000000000F5000000000000000000000000
310
0000000000000000000000000000F5000000F5F500000000F500F5F5F5F50000000000F5000000F5F5F5F5000000000000F50000000000000000000000000000000000000000000000000000000000000000000000000000000000000000000000000000000000000000000000000000000000000000000000000000000000
310
000000000000000000000000000000000000000000000000000000F50000000000F5F5000000000000000000000000000000D80000000000000000002D2D00000000D8002D2D0000002D2D0000000000000000D800000000000000000000000000000000D8000000000000000000000000000000F500000000000000000000
310
00000000000000000000000000000000F5000000000000000000F500000000000000000000F500000000000000000000000000F5000000000000000000000000000000000000000000000000000000000000000000000000000000000000000000000000000000000000000000000000000000000000000000000000000000
310
0000000000000000000000000000000000000000000000000000000000F50000000000F5F5000000000000000000000000000000D8000000000000000000002D2D000000D82D2D00000000F52D2D00000000000000D800000000000000000000000000000000D8000000000000000000000000000000F50000000000000000
310
000000000000000000000000000000000000F5F5F5F5F5F5F5F5F5F5F5F5F5F5F5F5F5F5F5F5F5F5F5F5F5F5F5F5F5F5F5F5F5F5F5F500000000000000000000000000000000000000000000000000000000000000000000000000000000000000000000000000000000000000000000000000000000000000000000000000
310
00000000000000000000000000000000000000000000000000000000000000F50000000000F5F5000000000000000000000000000000D800000000000000000000002D0000002D2D2D00000000F5F52D2D000000000000D800000000000000000000000000000000D8000000000000000000000000000000F5000000000000
310
0000000000000000000000000000000000000000F5000000F5F500000000F500F5F5F5F50000000000F50000F5F5F5F5F5000000000000F50000000000000000000000000000000000000000000000000000000000000000000000000000000000000000000000000000000000000000000000000000000000000000000000
310
000000000000000000000000000000000000000000000000000000000000000000F50000000000F5F500DCBEDCDCDCDCDCDCF5F5F5F5F5F5F5F5F5F5F5F5F5F5F5F5F5F5F5F5F52D2DF52D2DF5F5C3C3F5002D2D0000000000D800000000000000000000000000000000D8000000000000000000000000000000F500000000
310
00000000000000000000000000000000000000000000F5000000000000000000F500000000000000000000F500000000000000000000000000F5000000000000000000000000000000000000000000000000000000000000000000000000000000000000000000000000000000000000000000000000000000000000000000
310
0000000000000000000000000000000000000000000000000000000000000000000000F50000000000F5F5F5F5F5F5BEBEBEBEBEF5F5F5F5F5F5F5F5F5F5F5F5F5F5F5F5F5F5F52D2D2DF5F5F52D2DF5C3F5F500002D0000000000D800000000000000000000000000000000D8000000000000000000000000000000F50000
310
000000000000000000000000000000000000000000000000F5F5F5F5F5F5F5F5F5F5F5F5F5F5F5F5F5F5F5F5F5F5F5F5F5F5F5F5F5F5F5F5F5F5F5F500000000000000000000000000000000000000000000000000000000000000000000000000000000000000000000000000000000000000000000000000000000000000
310
00000000000000000000000000000000000000000000000000000000000000000000000000F50000000000F5F5F5F5F5F500000000000000000000DCDCDCBEBEBEBEBEBEBEC3000000002D2DD80000002D2D00F5F50000000000000000D800000000000000000000000000000000D8000000000000000000000000000000F5
310
0000000000000000000000000000000000000000000000000000F5F5F5F5F5F5F5F5F5F5F5F5F5F5F5F5F5F5F5F500F5F5F5F5F5F5F5F5F5F5F5F5F5F5F50000000000000000000000000000000000000000000000000000000000000000000000000000000000000000000000000000000000000000000000000000000000
310
000000000000000000000000000000000000000000000000000000000000000000000000000000F50000000000F5F500000000000000000000000000F5F5F5F5000000000000000000000000002D2D000000002D00F5F50000000000000000D800000000000000000000000000000000D80000000000000000000000000000
310
00F50000000000000000000000000000000000000000000000000000F5000000000000000000F500000000000000000000F5F5F5F5F5F5F5F5F5F5F5F5F500F5000000000000000000000000000000000000000000000000000000000000000000000000000000000000000000000000000000000000000000000000000000
310
0000000000000000000000000000000000000000000000000000000000000000000000000000000000F50000000000F5F500000000000000000000000000F5F5F5F500000000000000000000000000002D2D0000000000F5F50000000000000000D800000000000000000000000000000000D8000000000000000000000000
310
000000F50000000000000000000000000000000000000000000000000000F5000000000000000000F500000000000000000000F500000000000000000000000000F500000000000000000000000000000000000000000000000000000000000000000000000000000000000000000000000000000000000000000000000000
310
00000000000000000000000000000000000000000000000000000000000000000000000000000000000000F50000000000F5F5000000000000000000000000000000D8000000000000000000000000000000D82D2D00000000F5F5000000000000002DD800000000000000000000000000000000D800000000000000000000
310
0000000000F50000000000000000000000000000000000000000000000000000F5F5F5F5F5F5F5F5F5F5F5F5F5F5F5F5F5F5F5F5F5F5F5F5F5F5F5F5F5F5F5F5F5F5F5F50000000000000000000000000000000000000000000000000000000000000000000000000000000000000000000000000000000000000000000000
310
000000000000000000000000000000000000000000000000000000000000000000000000000000000000000000F50000000000F5F5000000000000000000000000000000D8000000000000000000000000000000D8002D2D000000F5F50000000000002D2DD800000000000000000000000000000000D80000000000000000
310
00000000000000F50000000000000000000000000000000000000000000000000000F5F5F5F5F5F5F5F5F5F5F5F5F5F5F5F5F5F5F5F5F5F5F5F5F5F5F5F5F5F5F5F5F5F500F5000000000000000000000000000000000000000000000000000000000000000000000000000000000000000000000000000000000000000000
310
0000000000000000000000000000000000000000000000000000000000000000000000000000000000000000000000F50000000000F5F5000000000000000000000000000000D8000000000000000000000000000000D800002D2D0000282800000000002D2D00D800000000000000000000000000000000D8000000000000
310
000000000000000000F50000000000000000000000000000000000000000000000000000F500000000000000000000000000000000000000000000000000000000000000000000F500000000000000000000000000000000000000000000000000000000000000000000000000000000000000000000000000000000000000
310
00000000000000000000000000000000000000000000000000000000000000000000000000000000000000000000000000F50000000000F5F5000000000000000000000000000000D8000000000000000000000000000000D80000002D00002828000000002D2D0000D800000000000000000000000000000000D800000000
310
0000000000000000000000F500F5F50000000000000000000000000000000000000000000000C3C3C3C3C3C3C3C3C3C3C3C3C3C3C3C3C3C3C3C3C3C3C3F5F5F5F5F5F5F5F5F5F5F5F5F50000000000000000000000000000000000000000000000000000000000000000000000000000000000000000000000000000000000
310
000000000000000000000000000000000000000000000000000000000000000000000000000000000000000000000000000000F50000D8D8D8D8D8D8D8D8D8D8D8D8D8D8D8D8D8D8D8D8D8D8D8D8D8D8D8D8D8D8D8D8D8D8D8D8D8D8D8D8D8D8D82828D8D8D82D2DD8D8D8D8D8D8D8D8D8D8D8D8D8D8D8D8D8D8D8D8D8D8D8
310
D8D8D8D8D8D8D8D8D8D8D8D8D8D8D8F5F50000000000000000000000000000000000000000000000C3C3C3C3C3C3C3C3C3C3C3C3C3C3C3C3C3C3C3C3C3C3C3000000000000000000000000F5000000000000000000000000000000000000000000000000000000000000000000000000000000000000000000000000000000
310
0000000000000000000000000000000000000000000000000000000000000000000000000000000000000000000000000000000000F50000000000F5F5000000000000000000000000000000D8000000000000000000000000000000D8000000000000282800002D2D00000000D800000000000000000000000000000000D8
310
000000000000000000000000000000F500000000000000000000000000000000000000000000000000002828282828282828282828282828282828282828282828280000000000000000000000F500000000000000000000000000000000000000000000000000000000000000000000000000000000000000000000000000
310
00000000000000000000000000000000000000000000000000000000000000000000000000000000000000000000000000000000000000F50000000000F5F5000000000000000000000000000000D8F5F5F5F50000000000000000000000D80000000000002828282D2D28282828282D2D2D2828DC28282828282828282828
310
28DC28282828DC00000000000000000000F50000000000000000000000000000000000000000000000000000F5F5F5F5F5F5F5F5F5F5F5F5F5F5F5F5F5F5F5F5F5F5F5F5F5F5F50000000000000000F50000000000000000000000000000000000000000000000000000000000000000000000000000000000000000000000
310
000000000000000000000000000000000000000000000000000000000000000000000000000000000000000000000000000000000000000000F50000000000F5F5000000000000000000000000000000D8F5F5F5F50000000000000000000000D8000000000000C32D2D2D2D2D2D2D2D2D2D2D2D2828282828282828282828
310
28282828282828282800000000000000000000F50000000000000000000000000000000000000000000000000000F5F5F5F5F5F5F5F5F5F5F5F5F5F5F5F5F5F5F5F5F5F5F5F5F5F5F50000000000000000F5000000000000000000000000000000000000000000000000000000000000000000000000000000000000000000
310
0000000000000000000000000000000000000000000000000000000000000000000000000000000000000000000000000000000000000000000000F50000000000F5F5000000000000000000000000000000D800002D2DBEBEBEBEBEBEBEC3000000D800000000000000002D2D2D2D2D000000D82D2D000000000000000000
310
0000000000D8000000282800000000000000000000F50000000000000000000000000000000000000000000000000000BEBEBEBEBEBEBEBEBEBEBEBEBEBEBEBEBEBEBEBEBEBEBEBEBEBE000000000000000000F500000000000000000000000000000000000000000000000000000000000000000000000000000000000000
310
00000000000000000000000000000000000000000000000000000000000000000000000000000000000000000000000000000000000000000000000000F50000000000F5F5000000000000000000000000000000D80000DCDCDCBEBEBEBEBEBEC3000000D800000000000000000000000000000000D82D2D00000000002D00
310
00000000000000D8000000282800000000000000000000F500000000000000000000000000000000000000000000000000002D2D2D2D2D2D2D2D2D2D2D2D2D2D000000000000000000000000000000000000000000F50000000000000000000000000000000000000000000000000000000000000000000000000000000000
310
000000000000000000000000000000000000000000000000000000000000000000000000000000000000000000000000000000000000000000000000000000F50000000000F5F5000000000000000000000000000000C3F5F5F5F5F5F5F5F5F5F5C3C3F5F5F5F5F5F5F5DCDCDCDCDCF5F5F5F5F5F5F5F5C32DF5F5F5F5F52D
310
2DDCDCDCDCDCF5F5F5F5F5F5C3282800000000000000000000F500000000000000000000000000000000000000000000000000002D2D2D2D2D2D2D2D2D2D2D2D2D2D000000000000000000000000000000000000000000F5000000000000000000000000000000000000000000000000000000000000000000000000000000
310
0000000000000000000000000000000000000000000000000000000000000000000000000000000000000000000000000000000000000000000000000000000000F50000000000F5F5000000000000000000000000000000F5F5F5F5F5F5F5F5F5F5F5C3C3F5F5F5F5F5F5F5F5F5F5F5F5F5F5F5F5F5F5F5F5C32DF5F5F5F5
310
2D2DF5F5F5F5F5F5F5F5F5F5F5F5C3C32800000000000000000000F50000000000000000000000000000000000000000000000000000F5F5F5F5F5F50000000000000000000000000000000000000000000000000000000000F500000000000000000000000000000000000000000000000000000000000000000000000000
310
00000000000000000000000000000000000000000000000000000000000000000000000000000000000000000000000000000000000000000000000000000000000000F50000000000F5F5000000000000000000000000000000F5F50000000000000000000000000000D800000000000000DCDCDCBEBEBEBEBEBEC32D0000
310
002D2D00000000000000000000D8000000282800000000000000000000F50000000000000000000000000000000000000000000000000000F5F5F5F5F5F50000000000000000000000000000000000000000000000000000000000F50000000000000000000000000000000000000000000000000000000000000000000000
310
000000000000000000000000000000000000000000000000000000000000000000000000000000000000000000000000000000000000000000000000000000000000000000F50000000000F5F5000000000000000000000000000000F5F50000000000000000000000000000D800000000000000F5F5F5BEBEBEBEBEBEC32D
310
00002D2D000000000000002D000000D8000000282800000000000000000000F500000000000000000000000000000000000000000000000000000000000000000000000000000000000000000000000000000000000000000000000000F5000000000000000000000000000000000000000000000000000000000000000000
310
0000000000000000000000000000000000000000000000000000000000000000000000000000000000000000000000000000000000000000000000000000000000000000000000F50000000000F5F500BEBEBEBEBEBEBEF5F5F5F5F5F5F5F5F50000000000000000000000000000D800000000000000F5F5F5000000000000
310
2D2D002D2D000000000000002D2D000000D8000000282800000000000000000000F500000000000000000000000000000000000000000000000000000000000000000000000000000000000000000000000000000000000000000000000000F500000000000000000000000000000000000000000000000000000000000000
310
00000000000000000000000000000000000000000000000000000000000000000000000000000000000000000000000000000000000000000000000000000000000000000000000000F50000000000F5F5DCBEDCDCDCDCDCDCF5F5F5F5F5F5F5F5DC0000000000000000000000000000D80000000000000000000000000000
310
00002D2D2D2D000000000000002D2D00000000D8000000282800000000000000000000F500000000000000000000000000000000000000000000000000000000000000000000000000000000000000000000000000000000000000000000000000F50000000000000000000000000000000000000000000000000000000000
310
000000000000000000000000000000000000000000000000000000000000000000000000000000000000000000000000000000000000000000000000000000000000000000000000000000F50000000000F5F5F5F5F5000000000000000000000000D8000000000000000000000000000000D8000000000000000000000000
310
000000002D2D2D000000000000002D2D0000000000D800000028280000000000000000F5F5F5F5000000000000000000000000000000000000000000000000000000000000000000000000000000000000000000000000000000000000000000000000F5000000000000000000000000000000000000000000000000000000
310
0000000000000000000000000000000000000000000000000000000000000000000000000000000000000000000000000000000000000000000000000000000000000000000000000000000000F50000000000F5F5F5F5F5000000000000000000000000D8000000000000000000000000000000D800000000000000000000
310
000000000000D82D000000000000002D2D2D0000000000D800000028280000000000000000F500F500000000000000000000000000000000000000000000000000000000000000000000000000000000000000000000000000000000000000000000000000F500000000000000000000000000000000000000000000000000
310
00000000000000000000000000000000000000000000000000000000000000000000000000000000000000000000000000000000000000000000000000000000000000000000000000000000000000F50000000000F5F5000000000000000000000000000000D8000000000000000000000000000000D80000000000000000
310
0000000000000000D8000000000000002D2D002D2D00000000D80000002828282828282828D628F5CAF500000000000000000000000000000000000000000000000000000000000000000000000000000000000000000000000000000000000000000000000000F50000000000000000000000000000000000000000000000
310
000000000000000000000000000000000000000000000000000000000000000000000000000000000000000000000000000000000000000000000000000000000000000000000000000000000000000000F50000000000F5F5000000000000000000000000000000D8000000000000000000000000000000D8000000000000
310
00000000000000000000D80000000000002D2D0000002D2D000000D8000000C3282828282828282800CA00F500000000000000000000000000000000000000000000000000000000000000000000000000000000000000000000000000000000000000000000000000F5000000000000000000000000000000000000000000
310
0000000000000000000000000000000000000000000000000000000000000000000000000000000000000000000000000000000000000000000000000000000000000000000000000000000000000000000000F500F5F5F5F5F5F5000000000000000000000000000000D8000000000000000000000000000000D800000000
310
000000000000000000000000D8000000002D2D2D00000000002D2D0000D8000000000000000000000000000000F500000000000000000000000000000000000000000000000000000000000000000000000000000000000000000000000000000000000000000000000000F500000000000000000000000000000000000000
310
00000000000000000000000000000000000000000000000000000000000000000000000000000000000000000000000000000000000000000000000000000000000000000000000000000000000000000000000000F500F500000000F5000000000000000000000000000000D8000000000000000000000000000000D80000
310
0000000000000000000000000000D800000000002D2D0000000000002D2D00D8000000000000000000000000000000F500000000000000000000000000000000000000000000000000000000000000000000000000000000000000000000000000000000000000000000000000F50000000000000000000000000000000000
310
000000000000000000000000000000000000000000000000000000000000000000000000000000000000000000000000000000000000000000000000000000000000000000000000000000000000000000000000000000F500F500000000F5000000000000000000000000000000D8000000000000000000000000000000D8
310
00000000000000000000000000000000D80000000000002D2D0000000000002D2DD8000000000000000000000000000000F500000000000000000000000000000000000000000000000000000000000000000000000000000000000000000000000000000000000000000000000000F5000000000000000000000000000000
310
0000000000000000000000000000000000000000000000000000000000000000000000000000000000000000000000000000000000000000000000000000000000000000000000000000000000000000000000000000000000F500F500000000F5000000000000000000000000000000D80000000000000000000000000000
310
00D800000000000000000000000000000000D8000000000000002D2D00000000002D2DD8000000000000000000000000000000F500000000000000000000000000000000000000000000000000000000000000000000000000000000000000000000000000000000000000000000000000F500000000000000000000000000
310
00000000000000000000000000000000000000000000000000000000000000000000000000000000000000000000000000000000000000000000000000000000000000000000000000000000000000000000000000000000000000F500F500000000F5000000000000000000000000000000D8000000000000000000000000
310
000000D800000000000000000000000000000000D800000000000000002D2D000000002D2DD80000000000002D0000000000000000F500000000000000000000000000000000000000000000000000000000000000000000000000000000000000000000000000000000000000000000000000F50000000000000000000000
310
000000000000000000000000000000000000000000000000000000000000000000000000000000000000000000000000000000000000000000000000000000000000000000000000000000000000000000000000000000000000000000F500F500000000F5000000000000000000000000000000D800000000000000000000
310
0000000000D800000000000000000000000000000000D80000000000000000002D2D0000002D2DD800000000002D2D2D00000000000000F500000000000000000000000000000000000000000000000000000000000000000000000000000000000000000000000000000000000000000000000000F5000000000000000000
310
0000000000000000000000000000000000000000000000000000000000000000000000000000000000000000000000000000000000000000000000000000000000000000000000000000000000000000000000000000000000000000000000F500F500000000F5000000000000000000000000000000D80000000000000000
310
00000000000000D800000000000000000000000000000000D8000000000000000000002D2D2D2D2D00D8000000002D2D002D2D000000000000F500000000000000000000000000000000000000000000000000000000000000000000000000000000000000000000000000000000000000000000000000F500000000000000
310
00000000000000000000000000000000000000000000000000000000000000000000000000000000000000000000000000000000000000000000000000000000000000000000000000000000000000000000000000000000000000000000000000F500F500000000F5000000000000000000000000000000D8000000000000
310
000000000000000000D800000000000000000000000000000000D800000000000000000000002D2D2D0000D80000002D2D0000002D2D0000000000F500000000000000000000000000000000000000000000000000000000000000000000000000000000000000000000000000000000000000000000000000F50000000000
310
000000000000000000000000000000000000000000000000000000000000000000000000000000000000000000000000000000000000000000000000000000000000000000000000000000000000000000000000000000000000000000000000000000F500F500000000F5000000000000000000000000000000D800000000
310
0000000000000000000000D800000000000000000000000000000000D800000000000000000000000000000000D800002D2D00000000002D2D00000000F500000000000000000000000000000000000000000000000000000000000000000000000000000000000000000000000000000000000000000000000000F5000000
310
0000000000000000000000000000000000000000000000000000000000000000000000000000000000000000000000000000000000000000000000000000000000000000000000000000000000000000000000000000000000000000000000000000000000F500F500000000F5000000000000000000000000000000D80000
310
00000000000000000000000000D800000000000000000000000000000000D800000000000000000000000000000000D8002D2D000000000000002D2D000000F500000000000000000000000000000000000000000000000000000000000000000000000000000000000000000000000000000000000000000000000000F500
310
00000000000000000000000000000000000000000000000000000000000000000000000000000000000000000000000000000000000000000000000000000000000000000000000000000000000000000000000000000000000000000000000000000000000000F500F500000000F5000000000000000000000000000000D8
310
000000000000000000000000000000D800000000000000000000000000000000D800000000000000000000000000000000D82D2D0000000000000000002D2D0000F500000000000000000000000000000000000000000000000000000000000000000000000000000000000000000000000000000000000000000000000000
310
F50000000000000000000000000000000000000000000000000000000000000000000000000000000000000000000000000000000000000000000000000000000000000000000000000000000000000000000000000000000000000000000000000000000000000000F500F5000000F5F50000000000000000000000000000
310
00D8000000000000000000000000000000D800000000000000000000000000000000D80000000000000000000000000000002D2D2D00000000000000000000002D0000F50000000000000000000000000000000000000000000000000000000000000000000000000000000000000000000000000000000000000000000000
310
0000F50000000000000000000000000000000000000000000000000000000000000000000000000000000000000000000000000000000000000000000000000000000000000000000000000000000000000000000000000000000000000000000000000000000000000000F500F5F5F5F5F5F5000000000000000000000000
310
000000D8000000000000000000000000000000D800000000000000000000000000000000D8000000000000000000000000000000002D000000000000000000000000000000F5000000000000000000000000000000000000000000000000000000000000000000000000000000000000000000000000000000000000000000
310
00000000F50000000000000000000000000000000000000000000000000000000000000000000000000000000000000000000000000000000000000000000000000000000000000000000000000000000000000000000000000000000000000000000000000000000000000000F50000000000F5F500000000000000000000
310
0000000000D8000000000000000000000000000000D800000000000000000000000000000000D800000000000000000000000000000000D800000000000000000000000000002DF500000000000000000000000000000000000000000000000000000000000000000000000000000000000000000000000000000000000000
310
000000000000F50000000000000000000000000000000000000000000000000000000000000000000000000000000000000000000000000000000000000000000000000000000000000000000000000000000000000000000000000000000000000000000000000000000000000000F50000000000F5F50000000000000000
310
00000000000000D8000000000000000000000000000000D800000000000000000000000000000000D800000000000000000000000000000000D800000000000000000000000000002DF50000000000000000000000000000000000000000000000000000000000000000000000000000000000000000000000000000000000
310
0000000000000000F50000000000000000000000000000000000000000000000000000000000000000000000000000000000000000000000000000000000000000000000000000000000000000000000000000000000000000000000000000000000000000000000000000000000000000F50000000000F5F5000000000000
310
000000000000000000D8000000000000000000000000000000D800000000000000000000000000000000D800000000000000000000000000000000D8000000000000000000000000002D2DF5000000000000000000000000000000000000000000000000000000000000000000000000000000000000000000000000000000
310
00000000000000000000F50000000000000000000000000000000000000000000000000000000000000000000000000000000000000000000000000000000000000000000000000000000000000000000000000000000000000000000000000000000000000000000000000000000000000000F50000000000F5F500000000
310
0000000000000000000000D8000000000000000000000000000000D800000000000000000000000000000000D800000000000000000000000000000000D8000000000000000000000000002D2DF500000000000000000000000000000000000000000000000000000000000000000000000000000000000000000000000000
310
000000000000000000000000F50000000000000000000000000000000000000000000000000000000000000000000000000000000000000000000000000000000000000000000000000000000000000000000000000000000000000000000000000000000000000000000000000000000000000000F50000000000F5F50000
310
00000000000000000000000000D8000000000000000000000000000000D800000000000000000000000000000000D800000000000000000000000000000000D8000000C3F5F5F5F5F5F5F5F5C32D2DF50000000000000000000000000000000000000000000000000000000000000000000000000000000000000000000000
310
0000000000000000000000000000F50000000000000000000000000000000000000000000000000000000000000000000000000000000000000000000000000000000000000000000000000000000000000000000000000000000000000000000000000000000000000000000000000000000000000000F50000000000F5F5
310
000000000000000000000000000000D8000000000000000000000000000000D800000000000000000000000000000000D800000000000000000000000000000000D8000000F5F5000000000000F52D2D2D2D000000000000000000000000000000000000000000000000000000000000000000000000000000000000000000
310
00000000000000000000000000000000F50000000000000000000000000000000000000000000000000000000000000000000000000000000000000000000000000000000000000000000000000000000000000000000000000000000000000000000000000000000000000000000000000000000000000000F50000000000
310
F5F5000000000000000000000000000000D8000000000000000000000000000000D800000000000000000000000000000000D800000000000000000000000000000000D8000000F5F5000000000000F52D2D002D2D000000000000000000000000000000000000000000000000000000000000000000000000000000000000
310
000000000000000000000000000000000000F50000000000000000000000000000000000000000000000000000000000000000000000000000000000000000000000000000000000000000000000000000000000000000000000000000000000000000000000000000000000000000000000000000000000000000F5000000
310
0000F5F5000000000000000000000000000000D8000000000000000000000000000000D800000000000000000000000000000000D800000000000000000000000000000000D8000000F5F5000000000000F52D0000F52D2D000000000000000000000000000000000000000000000000000000000000000000000000000000
310
0000000000000000000000000000000000000000F50000000000000000000000000000000000000000000000000000000000000000000000000000000000000000000000000000000000000000000000000000000000000000000000000000000000000000000000000000000000000000000000000000000000000000F500
310
00000000F5F5000000000000000000000000000000D8000000000000000000000000000000D800000000000000000000000000000000D800000000000000000000000000000000D8000000F5F50000000000002D2D0000F5002D2D000000000000000000000000000000000000000000000000000000000000000000000000
310
00000000000000000000000000000000000000000000F50000000000000000000000000000000000000000000000000000000000000000000000000000000000000000000000000000000000000000000000000000000000000000000000000000000000000000000000000000000000000000000000000000000000000000
310
F50000000000F5F5000000000000000000000000000000D8000000000000000000000000000000D800000000000000000000000000000000D800000000000000000000000000000000D8000000F5F50000000000002D2D0000F500002D2D2D2D2D2D0000000000000000000000000000000000000000000000000000000000
310
000000000000000000000000000000000000000000000000F5000000000000000000000000000000000000000000000000000000000000000000000000000000000000000000000000000000000000000000000000000000000000000000000000000000000000000000000000000000000000000000000000000000000000
310
0000F50000000000F5F5000000000000000000000000000000D8000000000000000000000000000000D800000000000000000000000000000000D800000000000000000000000000000000D8000000F5F50000000000002DF50000F5002D2D2D2D2D0000000000000000000000000000000000000000000000000000000000
310
0000000000000000000000000000000000000000000000000000F500000000000000000000000000000000000000000000000000000000000000000000000000000000000000000000000000000000000000000000000000000000000000000000000000000000000000000000000000000000000000000000000000000000
310
00000000F50000000000F5F5000000000000000000000000000000D8000000000000000000000000000000D800000000000000000000000000000000D800000000000000000000000000000000D8000000F5F500000000002D2DF5002D2D2D2D2D000000000000000000000000000000000000000000000000000000000000
310
00000000000000000000000000000000000000000000000000000000F50000000000000000000000000000000000000000000000000000000000000000000000000000000000000000000000000000000000000000000000000000000000000000000000000000000000000000000000000000000000000000000000000000
310
000000000000F50000000000F5F5000000000000000000000000000000D8000000000000000000000000000000D800000000000000000000000000000000D800000000000000000000000000000000D800000028DC0000000000002D2D2D2D2D00000000000000000000000000000000000000000000000000000000000000
310
000000000000000000000000000000000000000000000000000000000000F5000000000000000000000000000000000000000000000000000000000000000000000000000000000000000000000000000000000000000000000000000000000000000000000000000000000000000000000000000000000000000000000000
310
0000000000000000F50000000000F5F5000000000000000000000000000000D8000000000000000000000000000000D800000000000000000000000000000000D800000000000000000000000000000000D800000028280000000000002DF50000F50000000000000000000000000000000000000000000000000000000000
310
0000000000000000000000000000000000000000000000000000000000000000F500000000000000000000000000000000000000000000000000000000000000000000000000000000000000000000000000000000000000000000000000000000000000000000000000000000000000000000000000000000000000000000
310
00000000000000000000F50000000000F5F5000000000000000000000000000000D8000000000000000000000000000000D800000000000000000000000000000000D800000000000000000000000000000000D80000002828000000000000BEBE0000F50000000000000000000000002D0000000000000000000000000000
310
00000000000000000000000000000000000000000000000000000000000000000000F50000000000000000000000000000000000000000000000000000000000000000000000000000000000000000000000000000000000000000000000000000000000000000000000000000000000000000000000000000000000000000
310
000000000000000000000000F50000000000F5F50000002DBEBEBEBEBEBEBEF5F5F5F5F5F5F5F5F5F5F5F5F5F5F5F5F5F5F5F5F5F5F5F5F5F5F5F5F5F5F5F5F5F5C3C3C3C300000000000000000000000000000000D80000002828000000000000BEBE0000F500000000000000000000002D2D000000000000000000000000
310
000000000000000000000000000000000000000000000000000000000000000000000000F5000000000000000000000000000000000000000000000000000000000000000000000000000000000000000000000000000000000000000000000000000000000000000000000000000000000000000000000000000000000000
310
0000000000000000000000000000F50000000000F5F500F5F5F5F5DCDCDCDCDCDCF5F5F5F5F5F5F5F5F5F5F5F5F5F5F5F5F5F5F5F5F5F5F5F5F5F5F5F5F5F5F5F5F5F5C3C3F5F500000000000000000000000000000000D80000002828000000000000BEDC0000F5000000000000000000002D2D0000000000000000000000
310
0000000000000000000000000000000000000000000000000000000000000000000000000000F500000000000000000000000000000000000000000000000000000000000000000000000000000000000000000000000000000000000000000000000000000000000000000000000000000000000000000000000000000000
310
00000000000000000000000000000000F50000000000F5F500F5F5F5F500000000000000000000D82D2D28BEBEBEBEBEBEC30000000000D800000000002D2D28BEBEBEBEBEBEBEF5F500000000000000000000000000000000D80000002828000000000000BEDC0000F52D2D000000000000002D2D00000000000000000000
310
00000000000000000000000000000000000000000000000000000000000000000000000000000000F50000000000000000000000000000000000000000000000000000000000000000000000000000000000000000000000000000000000000000000000000000000000000000000000000000000000000000000000000000
310
000000000000000000000000000000000000F50000000000F5F500F5F5F5F500000000000000000000D8F5F5F5BEBEBEBEBEBEDC0000000000D800000000F5F5F5F5BEBEBEBEBEBEBEF5F5000000000000000000000000C3282828282828282828000000000000BEDC0000F5002D2D00000000002D2D000000000000000000
310
000000000000000000000000000000000000000000000000000000000000000000000000000000000000F5000000000000000000000000000000000000000000000000000000000000000000000000000000000000000000000000000000000000000000000000000000000000000000000000000000000000000000000000
310
0000000000000000000000000000000000000000F50000000000F5F5000000000000000000000000000000D8F5F5F5000000000000000000000000D800000000F5F5F5F500000000000000F5F5000000000000000000000000C32828282828282828C3000000000000BEDC0000F500002D2D0000002D2D0000000000000000
310
0000000000000000000000000000000000000000000000000000000000000000000000000000000000000000F500000000000000000000000000000000000000000000000000000000000000000000000000000000000000000000000000000000000000000000000000000000000000000000000000000000000000000000
310
00000000000000000000000000000000000000000000F50000000000F5F5000000000000000000000000000000D8000000000000000000000000000000D8000000000000000000000000000000F5F500000000000000000000000028DC0000D80000000000000000000000BEDC0000F50000002D2D002D2D00000000000000
310
00000000000000000000000000000000000000000000000000000000000000000000000000000000000000000000F50000000000000000000000000000000000000000000000000000000000000000000000000000000000000000000000000000000000000000000000000000000000000000000000000000000000000000
310
000000000000000000000000000000000000000000000000F50000000000F5F5000000000000000000000000000000D8000000000000000000000000000000D8000000000000000000000000000000F5F500000000000000000000000028280000D80000000000000000000000BEBE0000F5000000002D2D2D000000000000
310
0000000000002D0000000000000000000000000000000000000000000000000000000000000000000000000000000000F5000000000000000000000000000000000000000000000000000000000000000000000000000000000000000000000000000000000000000000000000000000000000000000000000000000000000
310
0000000000000000000000000000000000000000000000000000F50000000000F5F5000000000000000000000000000000D8000000000000000000000000000000D8000000000000000000000000000000F5F500000000000000000000000028280000D800000000000000000000002DDC0000F500000000002D2D00000000
310
000000000000002D2D2D00000000000000000000000000000000000000000000000000000000000000000000000000000000F500000000000000000000000000000000000000000000000000000000000000000000000000000000000000000000000000000000000000000000000000000000000000000000000000000000
310
00000000000000000000000000000000000000000000000000000000F50000000000F5F5000000000000000000000000000000D8000000000000000000000000000000D8000000000000000000000000000000F5F5F5F5F5F5F5F5F5F5F5F5F5F5F5280000D8000000000000000000F5F5F5F50000F50000000000002D2D00
310
00000000000000002D2D002D2D000000000000000000000000000000000000000000000000000000000000000000000000000000F50000000000000000000000000000000000000000000000000000000000000000000000000000000000000000000000000000000000000000000000000000000000000000000000000000
310
000000000000000000000000000000000000000000000000000000000000F50000000000F5F5000000000000000000000000000000D8000000000000000000000000000000D8000000000000000000000000000000C3F5F5F5F5F5F5F5F5F5F5F5F5F5F5C30000D8000000000000000000F5F5F5F50000F500000000000000
310
2D2D000000000000002D2D0000002D2D0000000000000000000000000000000000000000000000000000000000000000000000000000F5000000000000000000000000000000000000000000000000000000000000000000000000000000000000000000000000000000000000000000000000000000000000000000000000
310
0000000000000000000000000000000000000000000000000000000000000000F50000000000F5F5000000000000000000000000000000D8000000000000000000000000000000D800000000000000000000000000000000D800000000000000000000000000280000D8000000000000000000000000000000F50000000000
310
0000002D2D00000000002D2D00000000002D2D00000000000000000000000000000000000000000000000000000000000000000000000000F500000000000000000000000000000000000000000000000000000000000000000000000000000000000000000000000000000000000000000000000000000000000000000000
310
00000000000000000000000000000000000000000000000000000000000000000000F50000000000F5F5000000000000000000000000000000D8000000000000000000000000000000D800000000000000000000000000000000D8000000000000000000000000CAF5F500D8000000000000000000000000000000F5000000
310
0000000000002D000000002D2D2D0000000000002D2D000000000000000000000000000000000000000000000000000000000000000000000000F50000000000000000000000000000000000000000000000000000000000000000000000000000000000000000000000000000000000000000000000000000000000000000
310
000000000000000000000000000000000000000000000000000000000000000000000000F50000000000F5F5000000000000000000000000000000D8000000000000000000000000000000D800000000000000000000000000000000D8000000000000000000000000CACAF500D8000000000000000000000000000000F500
310
0000000000000000000000002D2D002D2D0000000000002D2D0000000000000000000000000000000000000000000000000000000000000000000000F5000000000000000000000000000000000000000000000000000000000000000000000000000000000000000000000000000000000000000000000000000000000000
310
0000000000000000000000000000000000000000000000000000000000000000000000000000F50000000000F5F5000000000000000000000000000000D8000000000000000000000000000000D800000000000000000000000000000000D80000000000000000000000000000F500D8000000000000000000000000000000
310
F500F5F500000000000000002D2D2D0000002D2D0000000000002D0000000000000000000000000000000000000000000000000000000000000000000000F500000000000000000000000000000000000000000000000000000000000000000000000000000000000000000000000000000000000000000000000000000000
310
00000000000000000000000000000000000000000000000000000000000000000000000000000000F50000000000F5F5000000000000000000000000000000D8000000000000000000000000000000D800000000000000000000000000000000D80000000000000000000000000000F500D800000000000000000000000000
310
0000F500F5F50000000000000000002D2D000000002D2D0000000000000000000000000000000000000000000000000000000000000000000000000000000000F50000000000000000000000000000000000000000000000000000000000000000000000000000000000000000000000000000000000000000000000000000
310
000000000000000000000000000000000000000000000000000000000000000000000000000000000000F50000000000F5F5F5F5F5F5F5F5F5F5F5F5F5F5F5F5F5F5F5F5F5F5F5F5F5F5F5F5F5F5F5F5F5F5F5F5F5F5F5F5F5F5F5F5F5F5F5F5F5F5F5F5F5F5F5F5F5F5F5F5F5F5F5F5F5F5F5D8F5F5F5F5F5F5F5F5F5F5F5
310
F5F5F5F5D8D8F5F5000000000000000000002D2D000000002D0000000000000000000000000000000000000000000000000000000000000000000000000000000000F5000000000000000000000000000000000000000000000000000000000000000000000000000000000000000000000000000000000000000000000000
310
0000000000000000000000000000000000000000000000000000000000000000000000000000000000000000F5000000000000D8000000000000000000000000000000D8000000000000000000000000000000D800000000000000000000000000000000D800000000000000000000000000000000D8000000000000000000
310
000000000000D800000000000000000000000000002D2D000000000000000000000000000000000000000000000000000000000000000000000000000000000000000000F500000000000000000000000000000000000000000000000000000000000000000000000000000000000000000000000000000000000000000000
310
00000000000000000000000000000000000000000000000000000000000000000000000000000000000000000000F5000000000000D8000000000000000000000000000000D8000000000000000000000000000000D800000000000000000000000000000000D800000000000000000000000000000000D800000000000000
310
0000000000000000D80000000000000000000000000000002D2D0000000000000000000000000000000000000000000000000000000000000000000000000000000000000000F50000000000000000000000000000000000000000000000000000000000000000000000000000000000000000000000000000000000000000
310
000000000000000000000000000000000000000000000000000000000000000000000000000000000000000000000000F50000000000F5D8000000000000000000000000000000D8F50000000000000000000000000000D8000000000000000000000000000000F5D8000000000000000000000000000000F5D80000000000
310
000000000000000000F5F5000000000000000000000000000000002D2D00000000000000000000000000000000000000000000000000000000000000000000000000000000000000F5000000000000000000000000000000000000000000000000000000000000000000000000000000000000000000000000000000000000
310
0000000000000000000000000000000000000000000000000000000000000000000000000000000000000000000000000000F50000000000F5D8000000000000000000000000000000D8F50000000000000000000000000000D8F50000000000000000000000000000F5D8000000000000000000000000000000F5D8000000
310
0000000000000000000000F5F500000000000000000000000000000000002D2D000000000000000000000000000000000000000000000000000000000000000000000000000000000000F500000000000000000000000000000000000000000000000000000000000000000000000000000000000000000000000000000000
310
00000000000000000000000000000000000000000000000000000000000000000000000000000000000000000000000000000000F50000000000F5F5000000000000000000000000000000F5F50000000000000000000000000000F5F50000000000000000000000000000F5F5000000000000000000000000000000F5F500
310
00000000000000000000000000F5F50000000000000000000000000000000000002D000000000000000000000000000000000000000000000000000000000000000000000000000000000000F50000000000000000000000000000000000000000000000000000000000000000000000000000000000000000000000000000
310
000000000000000000000000000000000000000000000000000000000000000000000000000000000000000000000000000000000000F5000000000000000000000000000000000000000000000000000000000000000000000000000000000000000000000000000000000000000000000000000000000000000000000000
310
000000000000000000000000000000000000000000000000000000000000000000000000000000000000000000000000000000000000000000000000000000000000000000000000000000000000F5000000000000000000000000000000000000000000000000000000000000000000000000000000000000000000000000
310
0000000000000000000000000000000000000000000000000000000000000000000000000000000000000000000000000000000000000000F5F5F5F5F5F5F5F5F5F5F5F5F5F5F5F5F5F5F5F5F5F5F5F5F5F5F5F5F5F5F5F5F5F5F5F5F5F5F5F5F5F5F5F5F5F5F5F5F5F5F5F5F5F5F5F5F5F5F5F5F5F5F5F5F5F5F5F5F5F5F5
310
F5F5F5F5F5F5F5F5F5F5F5F5F5F5F5F5F5F5F5F5F5F5F5F5F5F5F5F5F5F5F5F5F5F5F5F5F5F5F5F5F5F5F5F5F5F5F5F5F5F5F5F5F5F5F5F5F5F5F5F5F5F5F5F5F5F5F5F5F5F5F5F5F5F5F5F5F5F5F5F5F500000000000000000000000000000000000000000000000000000000000000000000000000000000000000000000
310
00000000000000000000000000000000000000000000000000000000000000000000000000000000000000000000000000000000000000000000F5F5F5F5F5F5F5F5F5F5F5F5F5F5F5F5F5F5F5F5F5F5F5F5F5F5F5F5F5F5F5F5F5F5F5F5F5F5F5F5F5F5F5F5F5F5F5F5F5F5F5F5F5F5F5F5F5F5F5F5F5F5F5F5F5F5F5F5F5
310
F5F5F5F5F5F5F5F5F5F5F5F5F5F5F5F5F5F5F5F5F5F5F5F5F5F5F5F5F5F5F5F5F5F5F5F5F5F5F5F5F5F5F5F5F5F5F5F5F5F5F5F5F5F5F5F5F5F5F5F5F5F5F5F5F5F5F5F5F5F5F5F5F5F5F5F5F5F5F5F5F5F5F50000000000000000000000000000000000000000000000000000000000000000000000000000000000000000
310
00000000000000000000000000000000000000000000000000000000000000000000000000000000000000000000000000000000000000000000000000000000000000000000000000000000000000000000000000000000000000000000000000000000000000000000000000000000000000000000000000000000000000
310
00000000000000000000000000000000000000000000000000000000000000000000000000000000000000000000000000000000000000000000000000000000000000000000000000000000000000000000000000000000000000000000000000000000000000000000000000000000000000000000000000000000000000
310
00000000000000000000000000000000000000000000000000000000000000000000000000000000000000000000000000000000000000000000000000000000000000000000000000000000000000000000000000000000000000000000000000000000000000000000000000000000000000000000000000000000000000
310
00000000000000000000000000000000000000000000000000000000000000000000000000000000000000000000000000000000000000000000000000000000000000000000000000000000000000000000000000000000000000000000000000000000000000000000000000000000000000000000000000000000000000
310
00000000000000000000000000000000000000000000000000000000000000000000000000000000000000000000000000000000000000000000000000000000000000000000000000000000000000000000000000000000000000000000000000000000000000000000000000000000000000000000000000000000000000
310
00000000000000000000000000000000000000000000000000000000000000000000000000000000000000000000000000000000000000000000000000000000000000000000000000000000000000000000000000000000000000000000000000000000000000000000000000000000000000000000000000000000000000
310
00000000000000000000000000000000000000000000000000000000000000000000000000000000000000000000000000000000000000000000000000000000000000000000000000000000000000000000000000000000000000000000000000000000000000000000000000000000000000000000000000000000000000
310
00000000000000000000000000000000000000000000000000000000000000000000000000000000000000000000000000000000000000000000000000000000000000000000000000000000000000000000000000000000000000000000000000000000000000000000000000000000000000000000000000000000000000
310
00000000000000000000000000000000
  0
XRECORD
  5
3038
102
{ACAD_REACTORS
330
2CC3
102
}
330
2CC3
100
AcDbXrecord
280
     1
102
MATERIAL
148
0.0
149
0.0
149
0.0
 93
        0
 94
      127
282
     0
 72
     0
 77
     0
171
     0
175
     0
179
     0
273
     0
  0
XRECORD
  5
2CC5
102
{ACAD_REACTORS
330
2CC3
102
}
330
2CC3
100
AcDbXrecord
280
     1
270
     1
271
     1
  0
XRECORD
  5
2CC4
102
{ACAD_REACTORS
330
2CC3
102
}
330
2CC3
100
AcDbXrecord
280
     1
270
     1
271
     1
  0
XRECORD
  5
2CC8
102
{ACAD_REACTORS
330
2CC3
102
}
330
2CC3
100
AcDbXrecord
280
     1
270
     1
271
     1
  0
XRECORD
  5
2CC7
102
{ACAD_REACTORS
330
2CC3
102
}
330
2CC3
100
AcDbXrecord
280
     1
270
     1
271
     1
  0
XRECORD
  5
2CC9
102
{ACAD_REACTORS
330
2CC3
102
}
330
2CC3
100
AcDbXrecord
280
     1
270
     1
271
     1
  0
XRECORD
  5
2CC6
102
{ACAD_REACTORS
330
2CC3
102
}
330
2CC3
100
AcDbXrecord
280
     1
270
     1
271
     1
  0
XRECORD
  5
3037
102
{ACAD_REACTORS
330
2CBB
102
}
330
2CBB
100
AcDbXrecord
280
     1
102
MATERIAL
148
0.0
149
0.0
149
0.0
 93
        0
 94
      127
282
     0
 72
     0
 77
     0
171
     0
175
     0
179
     0
273
     0
  0
XRECORD
  5
2CBD
102
{ACAD_REACTORS
330
2CBB
102
}
330
2CBB
100
AcDbXrecord
280
     1
270
     1
271
     1
  0
XRECORD
  5
2CBC
102
{ACAD_REACTORS
330
2CBB
102
}
330
2CBB
100
AcDbXrecord
280
     1
270
     1
271
     1
  0
XRECORD
  5
2CC0
102
{ACAD_REACTORS
330
2CBB
102
}
330
2CBB
100
AcDbXrecord
280
     1
270
     1
271
     1
  0
XRECORD
  5
2CBF
102
{ACAD_REACTORS
330
2CBB
102
}
330
2CBB
100
AcDbXrecord
280
     1
270
     1
271
     1
  0
XRECORD
  5
2CC1
102
{ACAD_REACTORS
330
2CBB
102
}
330
2CBB
100
AcDbXrecord
280
     1
270
     1
271
     1
  0
XRECORD
  5
2CBE
102
{ACAD_REACTORS
330
2CBB
102
}
330
2CBB
100
AcDbXrecord
280
     1
270
     1
271
     1
  0
XRECORD
  5
3039
102
{ACAD_REACTORS
330
2CCB
102
}
330
2CCB
100
AcDbXrecord
280
     1
102
MATERIAL
148
0.0
149
0.0
149
0.0
 93
        0
 94
      127
282
     0
 72
     0
 77
     0
171
     0
175
     0
179
     0
273
     0
  0
XRECORD
  5
2CCD
102
{ACAD_REACTORS
330
2CCB
102
}
330
2CCB
100
AcDbXrecord
280
     1
270
     1
271
     1
  0
XRECORD
  5
2CCC
102
{ACAD_REACTORS
330
2CCB
102
}
330
2CCB
100
AcDbXrecord
280
     1
270
     1
271
     1
  0
XRECORD
  5
2CD0
102
{ACAD_REACTORS
330
2CCB
102
}
330
2CCB
100
AcDbXrecord
280
     1
270
     1
271
     1
  0
XRECORD
  5
2CCF
102
{ACAD_REACTORS
330
2CCB
102
}
330
2CCB
100
AcDbXrecord
280
     1
270
     1
271
     1
  0
XRECORD
  5
2CD1
102
{ACAD_REACTORS
330
2CCB
102
}
330
2CCB
100
AcDbXrecord
280
     1
270
     1
271
     1
  0
XRECORD
  5
2CCE
102
{ACAD_REACTORS
330
2CCB
102
}
330
2CCB
100
AcDbXrecord
280
     1
270
     1
271
     1
  0
CELLSTYLEMAP
  5
32B6
102
{ACAD_REACTORS
330
2D6D
102
}
330
2D6D
100
AcDbCellStyleMap
 90
        3
300
CELLSTYLE
  1
TABLEFORMAT_BEGIN
 90
        5
170
     1
 91
        0
 92
    32768
 62
   257
 93
        1
300
CONTENTFORMAT
  1
CONTENTFORMAT_BEGIN
 90
        0
 91
        0
 92
        4
 93
        0
300

 40
0.0
140
1.0
 94
        5
 62
     0
340
11
144
0.25
309
CONTENTFORMAT_END
171
     1
301
MARGIN
  1
CELLMARGIN_BEGIN
 40
0.06
 40
0.06
 40
0.06
 40
0.06
 40
0.18
 40
0.18
309
CELLMARGIN_END
 94
        6
 95
        1
302
GRIDFORMAT
  1
GRIDFORMAT_BEGIN
 90
        0
 91
        1
 62
     0
 92
       -2
340
0
 93
        0
 40
0.045
309
GRIDFORMAT_END
 95
        2
302
GRIDFORMAT
  1
GRIDFORMAT_BEGIN
 90
        0
 91
        1
 62
     0
 92
       -2
340
0
 93
        0
 40
0.045
309
GRIDFORMAT_END
 95
        4
302
GRIDFORMAT
  1
GRIDFORMAT_BEGIN
 90
        0
 91
        1
 62
     0
 92
       -2
340
0
 93
        0
 40
0.045
309
GRIDFORMAT_END
 95
        8
302
GRIDFORMAT
  1
GRIDFORMAT_BEGIN
 90
        0
 91
        1
 62
     0
 92
       -2
340
0
 93
        0
 40
0.045
309
GRIDFORMAT_END
 95
       16
302
GRIDFORMAT
  1
GRIDFORMAT_BEGIN
 90
        0
 91
        1
 62
     0
 92
       -2
340
0
 93
        0
 40
0.045
309
GRIDFORMAT_END
 95
       32
302
GRIDFORMAT
  1
GRIDFORMAT_BEGIN
 90
        0
 91
        1
 62
     0
 92
       -2
340
0
 93
        0
 40
0.045
309
GRIDFORMAT_END
309
TABLEFORMAT_END
  1
CELLSTYLE_BEGIN
 90
        1
 91
        1
300
_TITLE
309
CELLSTYLE_END
300
CELLSTYLE
  1
TABLEFORMAT_BEGIN
 90
        5
170
     1
 91
        0
 92
        0
 62
   257
 93
        1
300
CONTENTFORMAT
  1
CONTENTFORMAT_BEGIN
 90
        0
 91
        0
 92
        4
 93
        0
300

 40
0.0
140
1.0
 94
        5
 62
     0
340
11
144
0.18
309
CONTENTFORMAT_END
171
     1
301
MARGIN
  1
CELLMARGIN_BEGIN
 40
0.06
 40
0.06
 40
0.06
 40
0.06
 40
0.18
 40
0.18
309
CELLMARGIN_END
 94
        6
 95
        1
302
GRIDFORMAT
  1
GRIDFORMAT_BEGIN
 90
        0
 91
        1
 62
     0
 92
       -2
340
0
 93
        0
 40
0.045
309
GRIDFORMAT_END
 95
        2
302
GRIDFORMAT
  1
GRIDFORMAT_BEGIN
 90
        0
 91
        1
 62
     0
 92
       -2
340
0
 93
        0
 40
0.045
309
GRIDFORMAT_END
 95
        4
302
GRIDFORMAT
  1
GRIDFORMAT_BEGIN
 90
        0
 91
        1
 62
     0
 92
       -2
340
0
 93
        0
 40
0.045
309
GRIDFORMAT_END
 95
        8
302
GRIDFORMAT
  1
GRIDFORMAT_BEGIN
 90
        0
 91
        1
 62
     0
 92
       -2
340
0
 93
        0
 40
0.045
309
GRIDFORMAT_END
 95
       16
302
GRIDFORMAT
  1
GRIDFORMAT_BEGIN
 90
        0
 91
        1
 62
     0
 92
       -2
340
0
 93
        0
 40
0.045
309
GRIDFORMAT_END
 95
       32
302
GRIDFORMAT
  1
GRIDFORMAT_BEGIN
 90
        0
 91
        1
 62
     0
 92
       -2
340
0
 93
        0
 40
0.045
309
GRIDFORMAT_END
309
TABLEFORMAT_END
  1
CELLSTYLE_BEGIN
 90
        2
 91
        1
300
_HEADER
309
CELLSTYLE_END
300
CELLSTYLE
  1
TABLEFORMAT_BEGIN
 90
        5
170
     1
 91
        0
 92
        0
 62
   257
 93
        1
300
CONTENTFORMAT
  1
CONTENTFORMAT_BEGIN
 90
        0
 91
        0
 92
        4
 93
        0
300

 40
0.0
140
1.0
 94
        2
 62
     0
340
11
144
0.18
309
CONTENTFORMAT_END
171
     1
301
MARGIN
  1
CELLMARGIN_BEGIN
 40
0.06
 40
0.06
 40
0.06
 40
0.06
 40
0.18
 40
0.18
309
CELLMARGIN_END
 94
        6
 95
        1
302
GRIDFORMAT
  1
GRIDFORMAT_BEGIN
 90
        0
 91
        1
 62
     0
 92
       -2
340
0
 93
        0
 40
0.045
309
GRIDFORMAT_END
 95
        2
302
GRIDFORMAT
  1
GRIDFORMAT_BEGIN
 90
        0
 91
        1
 62
     0
 92
       -2
340
0
 93
        0
 40
0.045
309
GRIDFORMAT_END
 95
        4
302
GRIDFORMAT
  1
GRIDFORMAT_BEGIN
 90
        0
 91
        1
 62
     0
 92
       -2
340
0
 93
        0
 40
0.045
309
GRIDFORMAT_END
 95
        8
302
GRIDFORMAT
  1
GRIDFORMAT_BEGIN
 90
        0
 91
        1
 62
     0
 92
       -2
340
0
 93
        0
 40
0.045
309
GRIDFORMAT_END
 95
       16
302
GRIDFORMAT
  1
GRIDFORMAT_BEGIN
 90
        0
 91
        1
 62
     0
 92
       -2
340
0
 93
        0
 40
0.045
309
GRIDFORMAT_END
 95
       32
302
GRIDFORMAT
  1
GRIDFORMAT_BEGIN
 90
        0
 91
        1
 62
     0
 92
       -2
340
0
 93
        0
 40
0.045
309
GRIDFORMAT_END
309
TABLEFORMAT_END
  1
CELLSTYLE_BEGIN
 90
        3
 91
        2
300
_DATA
309
CELLSTYLE_END
  0
XRECORD
  5
32B8
102
{ACAD_REACTORS
330
2D6D
102
}
330
2D6D
100
AcDbXrecord
280
     1
102
ACAD_ROUNDTRIP_PRE2007_TABLESTYLE
 90
        4
 91
        0
  1

 92
        4
 93
        0
  2

 94
        4
 95
        0
  3

  0
XRECORD
  5
32C4
102
{ACAD_REACTORS
330
32C3
102
}
330
32C3
100
AcDbXrecord
280
     1
102
RTVSPropertyOp0
 70
     1
102
RTVSPropertyOp1
 70
     1
102
RTVSPropertyOp2
 70
     1
102
RTVSPropertyOp3
 70
     1
102
RTVSPropertyOp4
 70
     1
102
RTVSPropertyOp5
 70
     1
102
RTVSPropertyOp6
 70
     1
102
RTVSPropertyOp7
 70
     1
102
RTVSPropertyOp8
 70
     1
102
RTVSPropertyOp9
 70
     1
102
RTVSPropertyOp10
 70
     1
102
RTVSPropertyOp11
 70
     1
102
RTVSPropertyOp12
 70
     1
102
RTVSPropertyOp13
 70
     1
102
RTVSPropertyOp14
 70
     1
102
RTVSPropertyOp15
 70
     1
102
RTVSPropertyOp16
 70
     1
102
RTVSPropertyOp17
 70
     1
102
RTVSPropertyOp18
 70
     1
102
RTVSPropertyOp19
 70
     1
102
RTVSPropertyOp20
 70
     1
102
RTVSPropertyOp21
 70
     1
102
RTVSPropertyOp22
 70
     1
102
RTVSPropertyOp23
 70
     1
102
RTVSPropertyOp24
 70
     1
102
RTVSPropertyOp25
 70
     1
102
RTVSPropertyOp26
 70
     1
102
RTVSPropertyOp27
 70
     1
102
RTVSPropertyOp28
 70
     1
102
RTVSPropertyOp29
 70
     1
102
RTVSPropertyOp30
 70
     1
102
RTVSPropertyOp31
 70
     1
102
RTVSPropertyOp32
 70
     1
  0
XRECORD
  5
32C2
102
{ACAD_REACTORS
330
32C1
102
}
330
32C1
100
AcDbXrecord
280
     1
102
RTVSPropertyOp0
 70
     1
102
RTVSPropertyOp1
 70
     1
102
RTVSPropertyOp2
 70
     1
102
RTVSPropertyOp3
 70
     1
102
RTVSPropertyOp4
 70
     1
102
RTVSPropertyOp5
 70
     1
102
RTVSPropertyOp6
 70
     1
102
RTVSPropertyOp7
 70
     1
102
RTVSPropertyOp8
 70
     1
102
RTVSPropertyOp9
 70
     1
102
RTVSPropertyOp10
 70
     1
102
RTVSPropertyOp11
 70
     1
102
RTVSPropertyOp12
 70
     1
102
RTVSPropertyOp13
 70
     1
102
RTVSPropertyOp14
 70
     1
102
RTVSPropertyOp15
 70
     1
102
RTVSPropertyOp16
 70
     1
102
RTVSPropertyOp17
 70
     1
102
RTVSPropertyOp18
 70
     1
102
RTVSPropertyOp19
 70
     1
102
RTVSPropertyOp20
 70
     1
102
RTVSPropertyOp21
 70
     1
102
RTVSPropertyOp22
 70
     1
102
RTVSPropertyOp23
 70
     1
102
RTVSPropertyOp24
 70
     1
102
RTVSPropertyOp25
 70
     1
102
RTVSPropertyOp26
 70
     1
102
RTVSPropertyOp27
 70
     1
102
RTVSPropertyOp28
 70
     1
102
RTVSPropertyOp29
 70
     1
102
RTVSPropertyOp30
 70
     1
102
RTVSPropertyOp31
 70
     1
102
RTVSPropertyOp32
 70
     1
  0
XRECORD
  5
32D0
102
{ACAD_REACTORS
330
32CF
102
}
330
32CF
100
AcDbXrecord
280
     1
102
RTVSPropertyOp0
 70
     1
102
RTVSPropertyOp1
 70
     1
102
RTVSPropertyOp2
 70
     1
102
RTVSPropertyOp3
 70
     1
102
RTVSPropertyOp4
 70
     1
102
RTVSPropertyOp5
 70
     1
102
RTVSPropertyOp6
 70
     1
102
RTVSPropertyOp7
 70
     1
102
RTVSPropertyOp8
 70
     1
102
RTVSPropertyOp9
 70
     1
102
RTVSPropertyOp10
 70
     1
102
RTVSPropertyOp11
 70
     1
102
RTVSPropertyOp12
 70
     1
102
RTVSPropertyOp13
 70
     1
102
RTVSPropertyOp14
 70
     1
102
RTVSPropertyOp15
 70
     1
102
RTVSPropertyOp16
 70
     1
102
RTVSPropertyOp17
 70
     1
102
RTVSPropertyOp18
 70
     1
102
RTVSPropertyOp19
 70
     1
102
RTVSPropertyOp20
 70
     1
102
RTVSPropertyOp21
 70
     1
102
RTVSPropertyOp22
 70
     1
102
RTVSPropertyOp23
 70
     1
102
RTVSPropertyOp24
 70
     1
102
RTVSPropertyOp25
 70
     1
102
RTVSPropertyOp26
 70
     1
102
RTVSPropertyOp27
 70
     1
102
RTVSPropertyOp28
 70
     1
102
RTVSPropertyOp29
 70
     1
102
RTVSPropertyOp30
 70
     1
102
RTVSPropertyOp31
 70
     1
102
RTVSPropertyOp32
 70
     1
  0
XRECORD
  5
32D8
102
{ACAD_REACTORS
330
32D7
102
}
330
32D7
100
AcDbXrecord
280
     1
102
RTVSPropertyOp0
 70
     1
102
RTVSPropertyOp1
 70
     1
102
RTVSPropertyOp2
 70
     1
102
RTVSPropertyOp3
 70
     1
102
RTVSPropertyOp4
 70
     1
102
RTVSPropertyOp5
 70
     1
102
RTVSPropertyOp6
 70
     1
102
RTVSPropertyOp7
 70
     1
102
RTVSPropertyOp8
 70
     1
102
RTVSPropertyOp9
 70
     1
102
RTVSPropertyOp10
 70
     1
102
RTVSPropertyOp11
 70
     1
102
RTVSPropertyOp12
 70
     1
102
RTVSPropertyOp13
 70
     1
102
RTVSPropertyOp14
 70
     1
102
RTVSPropertyOp15
 70
     1
102
RTVSPropertyOp16
 70
     1
102
RTVSPropertyOp17
 70
     1
102
RTVSPropertyOp18
 70
     1
102
RTVSPropertyOp19
 70
     1
102
RTVSPropertyOp20
 70
     1
102
RTVSPropertyOp21
 70
     1
102
RTVSPropertyOp22
 70
     1
102
RTVSPropertyOp23
 70
     1
102
RTVSPropertyOp24
 70
     1
102
RTVSPropertyOp25
 70
     1
102
RTVSPropertyOp26
 70
     1
102
RTVSPropertyOp27
 70
     1
102
RTVSPropertyOp28
 70
     1
102
RTVSPropertyOp29
 70
     1
102
RTVSPropertyOp30
 70
     1
102
RTVSPropertyOp31
 70
     1
102
RTVSPropertyOp32
 70
     1
  0
XRECORD
  5
32CA
102
{ACAD_REACTORS
330
32C9
102
}
330
32C9
100
AcDbXrecord
280
     1
102
RTVSPropertyOp0
 70
     1
102
RTVSPropertyOp1
 70
     1
102
RTVSPropertyOp2
 70
     1
102
RTVSPropertyOp3
 70
     1
102
RTVSPropertyOp4
 70
     1
102
RTVSPropertyOp5
 70
     1
102
RTVSPropertyOp6
 70
     1
102
RTVSPropertyOp7
 70
     1
102
RTVSPropertyOp8
 70
     1
102
RTVSPropertyOp9
 70
     1
102
RTVSPropertyOp10
 70
     1
102
RTVSPropertyOp11
 70
     1
102
RTVSPropertyOp12
 70
     1
102
RTVSPropertyOp13
 70
     1
102
RTVSPropertyOp14
 70
     1
102
RTVSPropertyOp15
 70
     1
102
RTVSPropertyOp16
 70
     1
102
RTVSPropertyOp17
 70
     1
102
RTVSPropertyOp18
 70
     1
102
RTVSPropertyOp19
 70
     1
102
RTVSPropertyOp20
 70
     1
102
RTVSPropertyOp21
 70
     1
102
RTVSPropertyOp22
 70
     1
102
RTVSPropertyOp23
 70
     1
102
RTVSPropertyOp24
 70
     1
102
RTVSPropertyOp25
 70
     1
102
RTVSPropertyOp26
 70
     1
102
RTVSPropertyOp27
 70
     1
102
RTVSPropertyOp28
 70
     1
102
RTVSPropertyOp29
 70
     1
102
RTVSPropertyOp30
 70
     1
102
RTVSPropertyOp31
 70
     1
102
RTVSPropertyOp32
 70
     1
  0
XRECORD
  5
32CE
102
{ACAD_REACTORS
330
32CD
102
}
330
32CD
100
AcDbXrecord
280
     1
102
RTVSPropertyOp0
 70
     1
102
RTVSPropertyOp1
 70
     1
102
RTVSPropertyOp2
 70
     1
102
RTVSPropertyOp3
 70
     1
102
RTVSPropertyOp4
 70
     1
102
RTVSPropertyOp5
 70
     1
102
RTVSPropertyOp6
 70
     1
102
RTVSPropertyOp7
 70
     1
102
RTVSPropertyOp8
 70
     1
102
RTVSPropertyOp9
 70
     1
102
RTVSPropertyOp10
 70
     1
102
RTVSPropertyOp11
 70
     1
102
RTVSPropertyOp12
 70
     1
102
RTVSPropertyOp13
 70
     1
102
RTVSPropertyOp14
 70
     1
102
RTVSPropertyOp15
 70
     1
102
RTVSPropertyOp16
 70
     1
102
RTVSPropertyOp17
 70
     1
102
RTVSPropertyOp18
 70
     1
102
RTVSPropertyOp19
 70
     1
102
RTVSPropertyOp20
 70
     1
102
RTVSPropertyOp21
 70
     1
102
RTVSPropertyOp22
 70
     1
102
RTVSPropertyOp23
 70
     1
102
RTVSPropertyOp24
 70
     1
102
RTVSPropertyOp25
 70
     1
102
RTVSPropertyOp26
 70
     1
102
RTVSPropertyOp27
 70
     1
102
RTVSPropertyOp28
 70
     1
102
RTVSPropertyOp29
 70
     1
102
RTVSPropertyOp30
 70
     1
102
RTVSPropertyOp31
 70
     1
102
RTVSPropertyOp32
 70
     1
  0
XRECORD
  5
32E8
102
{ACAD_REACTORS
330
32E7
102
}
330
32E7
100
AcDbXrecord
280
     1
102
RTVSPropertyOp0
 70
     0
102
RTVSPropertyOp1
 70
     0
102
RTVSPropertyOp2
 70
     0
102
RTVSPropertyOp3
 70
     0
102
RTVSPropertyOp4
 70
     0
102
RTVSPropertyOp5
 70
     0
102
RTVSPropertyOp6
 70
     0
102
RTVSPropertyOp7
 70
     0
102
RTVSPropertyOp8
 70
     0
102
RTVSPropertyOp9
 70
     0
102
RTVSPropertyOp10
 70
     0
102
RTVSPropertyOp11
 70
     0
102
RTVSPropertyOp12
 70
     0
102
RTVSPropertyOp13
 70
     0
102
RTVSPropertyOp14
 70
     2
102
RTVSPropertyOp15
 70
     0
102
RTVSPropertyOp16
 70
     0
102
RTVSPropertyOp17
 70
     0
102
RTVSPropertyOp18
 70
     0
102
RTVSPropertyOp19
 70
     0
102
RTVSPropertyOp20
 70
     0
102
RTVSPropertyOp21
 70
     0
102
RTVSPropertyOp22
 70
     0
102
RTVSPropertyOp23
 70
     0
102
RTVSPropertyOp24
 70
     0
102
RTVSPropertyOp25
 70
     0
102
RTVSPropertyOp26
 70
     0
102
RTVSPropertyOp27
 70
     0
102
RTVSPropertyOp28
 70
     0
102
RTVSPropertyOp29
 70
     0
102
RTVSPropertyOp30
 70
     0
102
RTVSPropertyOp31
 70
     0
102
RTVSPropertyOp32
 70
     0
  0
XRECORD
  5
32D6
102
{ACAD_REACTORS
330
32D5
102
}
330
32D5
100
AcDbXrecord
280
     1
102
RTVSPropertyOp0
 70
     1
102
RTVSPropertyOp1
 70
     1
102
RTVSPropertyOp2
 70
     1
102
RTVSPropertyOp3
 70
     1
102
RTVSPropertyOp4
 70
     1
102
RTVSPropertyOp5
 70
     1
102
RTVSPropertyOp6
 70
     1
102
RTVSPropertyOp7
 70
     1
102
RTVSPropertyOp8
 70
     1
102
RTVSPropertyOp9
 70
     1
102
RTVSPropertyOp10
 70
     1
102
RTVSPropertyOp11
 70
     1
102
RTVSPropertyOp12
 70
     1
102
RTVSPropertyOp13
 70
     1
102
RTVSPropertyOp14
 70
     1
102
RTVSPropertyOp15
 70
     1
102
RTVSPropertyOp16
 70
     1
102
RTVSPropertyOp17
 70
     1
102
RTVSPropertyOp18
 70
     1
102
RTVSPropertyOp19
 70
     1
102
RTVSPropertyOp20
 70
     1
102
RTVSPropertyOp21
 70
     1
102
RTVSPropertyOp22
 70
     1
102
RTVSPropertyOp23
 70
     1
102
RTVSPropertyOp24
 70
     1
102
RTVSPropertyOp25
 70
     1
102
RTVSPropertyOp26
 70
     1
102
RTVSPropertyOp27
 70
     1
102
RTVSPropertyOp28
 70
     1
102
RTVSPropertyOp29
 70
     1
102
RTVSPropertyOp30
 70
     1
102
RTVSPropertyOp31
 70
     1
102
RTVSPropertyOp32
 70
     1
  0
XRECORD
  5
32BA
102
{ACAD_REACTORS
330
32B9
102
}
330
32B9
100
AcDbXrecord
280
     1
102
RTVSPropertyOp0
 70
     1
102
RTVSPropertyOp1
 70
     1
102
RTVSPropertyOp2
 70
     1
102
RTVSPropertyOp3
 70
     1
102
RTVSPropertyOp4
 70
     1
102
RTVSPropertyOp5
 70
     1
102
RTVSPropertyOp6
 70
     1
102
RTVSPropertyOp7
 70
     1
102
RTVSPropertyOp8
 70
     1
102
RTVSPropertyOp9
 70
     1
102
RTVSPropertyOp10
 70
     1
102
RTVSPropertyOp11
 70
     1
102
RTVSPropertyOp12
 70
     1
102
RTVSPropertyOp13
 70
     1
102
RTVSPropertyOp14
 70
     1
102
RTVSPropertyOp15
 70
     1
102
RTVSPropertyOp16
 70
     1
102
RTVSPropertyOp17
 70
     1
102
RTVSPropertyOp18
 70
     1
102
RTVSPropertyOp19
 70
     1
102
RTVSPropertyOp20
 70
     1
102
RTVSPropertyOp21
 70
     1
102
RTVSPropertyOp22
 70
     1
102
RTVSPropertyOp23
 70
     1
102
RTVSPropertyOp24
 70
     1
102
RTVSPropertyOp25
 70
     1
102
RTVSPropertyOp26
 70
     1
102
RTVSPropertyOp27
 70
     1
102
RTVSPropertyOp28
 70
     1
102
RTVSPropertyOp29
 70
     1
102
RTVSPropertyOp30
 70
     1
102
RTVSPropertyOp31
 70
     1
102
RTVSPropertyOp32
 70
     1
  0
XRECORD
  5
32BC
102
{ACAD_REACTORS
330
32BB
102
}
330
32BB
100
AcDbXrecord
280
     1
102
RTVSPropertyOp0
 70
     1
102
RTVSPropertyOp1
 70
     1
102
RTVSPropertyOp2
 70
     1
102
RTVSPropertyOp3
 70
     1
102
RTVSPropertyOp4
 70
     1
102
RTVSPropertyOp5
 70
     1
102
RTVSPropertyOp6
 70
     1
102
RTVSPropertyOp7
 70
     1
102
RTVSPropertyOp8
 70
     1
102
RTVSPropertyOp9
 70
     1
102
RTVSPropertyOp10
 70
     1
102
RTVSPropertyOp11
 70
     1
102
RTVSPropertyOp12
 70
     1
102
RTVSPropertyOp13
 70
     1
102
RTVSPropertyOp14
 70
     1
102
RTVSPropertyOp15
 70
     1
102
RTVSPropertyOp16
 70
     1
102
RTVSPropertyOp17
 70
     1
102
RTVSPropertyOp18
 70
     1
102
RTVSPropertyOp19
 70
     1
102
RTVSPropertyOp20
 70
     1
102
RTVSPropertyOp21
 70
     1
102
RTVSPropertyOp22
 70
     1
102
RTVSPropertyOp23
 70
     1
102
RTVSPropertyOp24
 70
     1
102
RTVSPropertyOp25
 70
     1
102
RTVSPropertyOp26
 70
     1
102
RTVSPropertyOp27
 70
     1
102
RTVSPropertyOp28
 70
     1
102
RTVSPropertyOp29
 70
     1
102
RTVSPropertyOp30
 70
     1
102
RTVSPropertyOp31
 70
     1
102
RTVSPropertyOp32
 70
     1
  0
XRECORD
  5
32BE
102
{ACAD_REACTORS
330
32BD
102
}
330
32BD
100
AcDbXrecord
280
     1
102
RTVSPropertyOp0
 70
     1
102
RTVSPropertyOp1
 70
     1
102
RTVSPropertyOp2
 70
     1
102
RTVSPropertyOp3
 70
     1
102
RTVSPropertyOp4
 70
     1
102
RTVSPropertyOp5
 70
     1
102
RTVSPropertyOp6
 70
     1
102
RTVSPropertyOp7
 70
     1
102
RTVSPropertyOp8
 70
     1
102
RTVSPropertyOp9
 70
     1
102
RTVSPropertyOp10
 70
     1
102
RTVSPropertyOp11
 70
     1
102
RTVSPropertyOp12
 70
     1
102
RTVSPropertyOp13
 70
     1
102
RTVSPropertyOp14
 70
     1
102
RTVSPropertyOp15
 70
     1
102
RTVSPropertyOp16
 70
     1
102
RTVSPropertyOp17
 70
     1
102
RTVSPropertyOp18
 70
     1
102
RTVSPropertyOp19
 70
     1
102
RTVSPropertyOp20
 70
     1
102
RTVSPropertyOp21
 70
     1
102
RTVSPropertyOp22
 70
     1
102
RTVSPropertyOp23
 70
     1
102
RTVSPropertyOp24
 70
     1
102
RTVSPropertyOp25
 70
     1
102
RTVSPropertyOp26
 70
     1
102
RTVSPropertyOp27
 70
     1
102
RTVSPropertyOp28
 70
     1
102
RTVSPropertyOp29
 70
     1
102
RTVSPropertyOp30
 70
     1
102
RTVSPropertyOp31
 70
     1
102
RTVSPropertyOp32
 70
     1
  0
XRECORD
  5
32C0
102
{ACAD_REACTORS
330
32BF
102
}
330
32BF
100
AcDbXrecord
280
     1
102
RTVSPropertyOp0
 70
     1
102
RTVSPropertyOp1
 70
     1
102
RTVSPropertyOp2
 70
     1
102
RTVSPropertyOp3
 70
     1
102
RTVSPropertyOp4
 70
     1
102
RTVSPropertyOp5
 70
     1
102
RTVSPropertyOp6
 70
     1
102
RTVSPropertyOp7
 70
     1
102
RTVSPropertyOp8
 70
     1
102
RTVSPropertyOp9
 70
     1
102
RTVSPropertyOp10
 70
     1
102
RTVSPropertyOp11
 70
     1
102
RTVSPropertyOp12
 70
     1
102
RTVSPropertyOp13
 70
     1
102
RTVSPropertyOp14
 70
     1
102
RTVSPropertyOp15
 70
     1
102
RTVSPropertyOp16
 70
     1
102
RTVSPropertyOp17
 70
     1
102
RTVSPropertyOp18
 70
     1
102
RTVSPropertyOp19
 70
     1
102
RTVSPropertyOp20
 70
     1
102
RTVSPropertyOp21
 70
     1
102
RTVSPropertyOp22
 70
     1
102
RTVSPropertyOp23
 70
     1
102
RTVSPropertyOp24
 70
     1
102
RTVSPropertyOp25
 70
     1
102
RTVSPropertyOp26
 70
     1
102
RTVSPropertyOp27
 70
     1
102
RTVSPropertyOp28
 70
     1
102
RTVSPropertyOp29
 70
     1
102
RTVSPropertyOp30
 70
     1
102
RTVSPropertyOp31
 70
     1
102
RTVSPropertyOp32
 70
     1
  0
XRECORD
  5
32C8
102
{ACAD_REACTORS
330
32C7
102
}
330
32C7
100
AcDbXrecord
280
     1
102
RTVSPropertyOp0
 70
     1
102
RTVSPropertyOp1
 70
     1
102
RTVSPropertyOp2
 70
     1
102
RTVSPropertyOp3
 70
     1
102
RTVSPropertyOp4
 70
     1
102
RTVSPropertyOp5
 70
     1
102
RTVSPropertyOp6
 70
     1
102
RTVSPropertyOp7
 70
     1
102
RTVSPropertyOp8
 70
     1
102
RTVSPropertyOp9
 70
     1
102
RTVSPropertyOp10
 70
     1
102
RTVSPropertyOp11
 70
     1
102
RTVSPropertyOp12
 70
     1
102
RTVSPropertyOp13
 70
     1
102
RTVSPropertyOp14
 70
     1
102
RTVSPropertyOp15
 70
     1
102
RTVSPropertyOp16
 70
     1
102
RTVSPropertyOp17
 70
     1
102
RTVSPropertyOp18
 70
     1
102
RTVSPropertyOp19
 70
     1
102
RTVSPropertyOp20
 70
     1
102
RTVSPropertyOp21
 70
     1
102
RTVSPropertyOp22
 70
     1
102
RTVSPropertyOp23
 70
     1
102
RTVSPropertyOp24
 70
     1
102
RTVSPropertyOp25
 70
     1
102
RTVSPropertyOp26
 70
     1
102
RTVSPropertyOp27
 70
     1
102
RTVSPropertyOp28
 70
     1
102
RTVSPropertyOp29
 70
     1
102
RTVSPropertyOp30
 70
     1
102
RTVSPropertyOp31
 70
     1
102
RTVSPropertyOp32
 70
     1
  0
XRECORD
  5
32E4
102
{ACAD_REACTORS
330
32E3
102
}
330
32E3
100
AcDbXrecord
280
     1
102
RTVSPropertyOp0
 70
     0
102
RTVSPropertyOp1
 70
     0
102
RTVSPropertyOp2
 70
     0
102
RTVSPropertyOp3
 70
     0
102
RTVSPropertyOp4
 70
     0
102
RTVSPropertyOp5
 70
     0
102
RTVSPropertyOp6
 70
     0
102
RTVSPropertyOp7
 70
     0
102
RTVSPropertyOp8
 70
     0
102
RTVSPropertyOp9
 70
     0
102
RTVSPropertyOp10
 70
     0
102
RTVSPropertyOp11
 70
     0
102
RTVSPropertyOp12
 70
     0
102
RTVSPropertyOp13
 70
     0
102
RTVSPropertyOp14
 70
     2
102
RTVSPropertyOp15
 70
     0
102
RTVSPropertyOp16
 70
     0
102
RTVSPropertyOp17
 70
     0
102
RTVSPropertyOp18
 70
     0
102
RTVSPropertyOp19
 70
     0
102
RTVSPropertyOp20
 70
     0
102
RTVSPropertyOp21
 70
     0
102
RTVSPropertyOp22
 70
     0
102
RTVSPropertyOp23
 70
     0
102
RTVSPropertyOp24
 70
     0
102
RTVSPropertyOp25
 70
     0
102
RTVSPropertyOp26
 70
     0
102
RTVSPropertyOp27
 70
     0
102
RTVSPropertyOp28
 70
     0
102
RTVSPropertyOp29
 70
     0
102
RTVSPropertyOp30
 70
     0
102
RTVSPropertyOp31
 70
     0
102
RTVSPropertyOp32
 70
     0
  0
XRECORD
  5
32D4
102
{ACAD_REACTORS
330
32D3
102
}
330
32D3
100
AcDbXrecord
280
     1
102
RTVSPropertyOp0
 70
     1
102
RTVSPropertyOp1
 70
     1
102
RTVSPropertyOp2
 70
     1
102
RTVSPropertyOp3
 70
     1
102
RTVSPropertyOp4
 70
     1
102
RTVSPropertyOp5
 70
     1
102
RTVSPropertyOp6
 70
     1
102
RTVSPropertyOp7
 70
     1
102
RTVSPropertyOp8
 70
     1
102
RTVSPropertyOp9
 70
     1
102
RTVSPropertyOp10
 70
     1
102
RTVSPropertyOp11
 70
     1
102
RTVSPropertyOp12
 70
     1
102
RTVSPropertyOp13
 70
     1
102
RTVSPropertyOp14
 70
     1
102
RTVSPropertyOp15
 70
     1
102
RTVSPropertyOp16
 70
     1
102
RTVSPropertyOp17
 70
     1
102
RTVSPropertyOp18
 70
     1
102
RTVSPropertyOp19
 70
     1
102
RTVSPropertyOp20
 70
     1
102
RTVSPropertyOp21
 70
     1
102
RTVSPropertyOp22
 70
     1
102
RTVSPropertyOp23
 70
     1
102
RTVSPropertyOp24
 70
     1
102
RTVSPropertyOp25
 70
     1
102
RTVSPropertyOp26
 70
     1
102
RTVSPropertyOp27
 70
     1
102
RTVSPropertyOp28
 70
     1
102
RTVSPropertyOp29
 70
     1
102
RTVSPropertyOp30
 70
     1
102
RTVSPropertyOp31
 70
     1
102
RTVSPropertyOp32
 70
     1
  0
XRECORD
  5
32E6
102
{ACAD_REACTORS
330
32E5
102
}
330
32E5
100
AcDbXrecord
280
     1
102
RTVSPropertyOp0
 70
     0
102
RTVSPropertyOp1
 70
     0
102
RTVSPropertyOp2
 70
     0
102
RTVSPropertyOp3
 70
     0
102
RTVSPropertyOp4
 70
     0
102
RTVSPropertyOp5
 70
     0
102
RTVSPropertyOp6
 70
     0
102
RTVSPropertyOp7
 70
     0
102
RTVSPropertyOp8
 70
     0
102
RTVSPropertyOp9
 70
     0
102
RTVSPropertyOp10
 70
     0
102
RTVSPropertyOp11
 70
     0
102
RTVSPropertyOp12
 70
     0
102
RTVSPropertyOp13
 70
     0
102
RTVSPropertyOp14
 70
     2
102
RTVSPropertyOp15
 70
     0
102
RTVSPropertyOp16
 70
     0
102
RTVSPropertyOp17
 70
     0
102
RTVSPropertyOp18
 70
     0
102
RTVSPropertyOp19
 70
     0
102
RTVSPropertyOp20
 70
     0
102
RTVSPropertyOp21
 70
     0
102
RTVSPropertyOp22
 70
     0
102
RTVSPropertyOp23
 70
     0
102
RTVSPropertyOp24
 70
     0
102
RTVSPropertyOp25
 70
     0
102
RTVSPropertyOp26
 70
     0
102
RTVSPropertyOp27
 70
     0
102
RTVSPropertyOp28
 70
     0
102
RTVSPropertyOp29
 70
     0
102
RTVSPropertyOp30
 70
     0
102
RTVSPropertyOp31
 70
     0
102
RTVSPropertyOp32
 70
     0
  0
XRECORD
  5
32CC
102
{ACAD_REACTORS
330
32CB
102
}
330
32CB
100
AcDbXrecord
280
     1
102
RTVSPropertyOp0
 70
     1
102
RTVSPropertyOp1
 70
     1
102
RTVSPropertyOp2
 70
     1
102
RTVSPropertyOp3
 70
     1
102
RTVSPropertyOp4
 70
     1
102
RTVSPropertyOp5
 70
     1
102
RTVSPropertyOp6
 70
     1
102
RTVSPropertyOp7
 70
     1
102
RTVSPropertyOp8
 70
     1
102
RTVSPropertyOp9
 70
     1
102
RTVSPropertyOp10
 70
     1
102
RTVSPropertyOp11
 70
     1
102
RTVSPropertyOp12
 70
     1
102
RTVSPropertyOp13
 70
     1
102
RTVSPropertyOp14
 70
     1
102
RTVSPropertyOp15
 70
     1
102
RTVSPropertyOp16
 70
     1
102
RTVSPropertyOp17
 70
     1
102
RTVSPropertyOp18
 70
     1
102
RTVSPropertyOp19
 70
     1
102
RTVSPropertyOp20
 70
     1
102
RTVSPropertyOp21
 70
     1
102
RTVSPropertyOp22
 70
     1
102
RTVSPropertyOp23
 70
     1
102
RTVSPropertyOp24
 70
     1
102
RTVSPropertyOp25
 70
     1
102
RTVSPropertyOp26
 70
     1
102
RTVSPropertyOp27
 70
     1
102
RTVSPropertyOp28
 70
     1
102
RTVSPropertyOp29
 70
     1
102
RTVSPropertyOp30
 70
     1
102
RTVSPropertyOp31
 70
     1
102
RTVSPropertyOp32
 70
     1
  0
XRECORD
  5
32E2
102
{ACAD_REACTORS
330
32E1
102
}
330
32E1
100
AcDbXrecord
280
     1
102
RTVSPropertyOp0
 70
     1
102
RTVSPropertyOp1
 70
     1
102
RTVSPropertyOp2
 70
     1
102
RTVSPropertyOp3
 70
     1
102
RTVSPropertyOp4
 70
     1
102
RTVSPropertyOp5
 70
     1
102
RTVSPropertyOp6
 70
     1
102
RTVSPropertyOp7
 70
     1
102
RTVSPropertyOp8
 70
     1
102
RTVSPropertyOp9
 70
     1
102
RTVSPropertyOp10
 70
     1
102
RTVSPropertyOp11
 70
     1
102
RTVSPropertyOp12
 70
     1
102
RTVSPropertyOp13
 70
     1
102
RTVSPropertyOp14
 70
     1
102
RTVSPropertyOp15
 70
     1
102
RTVSPropertyOp16
 70
     1
102
RTVSPropertyOp17
 70
     1
102
RTVSPropertyOp18
 70
     1
102
RTVSPropertyOp19
 70
     1
102
RTVSPropertyOp20
 70
     1
102
RTVSPropertyOp21
 70
     1
102
RTVSPropertyOp22
 70
     1
102
RTVSPropertyOp23
 70
     1
102
RTVSPropertyOp24
 70
     1
102
RTVSPropertyOp25
 70
     1
102
RTVSPropertyOp26
 70
     1
102
RTVSPropertyOp27
 70
     1
102
RTVSPropertyOp28
 70
     1
102
RTVSPropertyOp29
 70
     1
102
RTVSPropertyOp30
 70
     1
102
RTVSPropertyOp31
 70
     1
102
RTVSPropertyOp32
 70
     1
  0
XRECORD
  5
32E0
102
{ACAD_REACTORS
330
32DF
102
}
330
32DF
100
AcDbXrecord
280
     1
102
RTVSPropertyOp0
 70
     1
102
RTVSPropertyOp1
 70
     1
102
RTVSPropertyOp2
 70
     1
102
RTVSPropertyOp3
 70
     1
102
RTVSPropertyOp4
 70
     1
102
RTVSPropertyOp5
 70
     1
102
RTVSPropertyOp6
 70
     1
102
RTVSPropertyOp7
 70
     1
102
RTVSPropertyOp8
 70
     1
102
RTVSPropertyOp9
 70
     1
102
RTVSPropertyOp10
 70
     1
102
RTVSPropertyOp11
 70
     1
102
RTVSPropertyOp12
 70
     1
102
RTVSPropertyOp13
 70
     1
102
RTVSPropertyOp14
 70
     1
102
RTVSPropertyOp15
 70
     1
102
RTVSPropertyOp16
 70
     1
102
RTVSPropertyOp17
 70
     1
102
RTVSPropertyOp18
 70
     1
102
RTVSPropertyOp19
 70
     1
102
RTVSPropertyOp20
 70
     1
102
RTVSPropertyOp21
 70
     1
102
RTVSPropertyOp22
 70
     1
102
RTVSPropertyOp23
 70
     1
102
RTVSPropertyOp24
 70
     1
102
RTVSPropertyOp25
 70
     1
102
RTVSPropertyOp26
 70
     1
102
RTVSPropertyOp27
 70
     1
102
RTVSPropertyOp28
 70
     1
102
RTVSPropertyOp29
 70
     1
102
RTVSPropertyOp30
 70
     1
102
RTVSPropertyOp31
 70
     1
102
RTVSPropertyOp32
 70
     1
  0
XRECORD
  5
32DA
102
{ACAD_REACTORS
330
32D9
102
}
330
32D9
100
AcDbXrecord
280
     1
102
RTVSPropertyOp0
 70
     1
102
RTVSPropertyOp1
 70
     1
102
RTVSPropertyOp2
 70
     1
102
RTVSPropertyOp3
 70
     1
102
RTVSPropertyOp4
 70
     1
102
RTVSPropertyOp5
 70
     1
102
RTVSPropertyOp6
 70
     1
102
RTVSPropertyOp7
 70
     1
102
RTVSPropertyOp8
 70
     1
102
RTVSPropertyOp9
 70
     1
102
RTVSPropertyOp10
 70
     1
102
RTVSPropertyOp11
 70
     1
102
RTVSPropertyOp12
 70
     1
102
RTVSPropertyOp13
 70
     1
102
RTVSPropertyOp14
 70
     1
102
RTVSPropertyOp15
 70
     1
102
RTVSPropertyOp16
 70
     1
102
RTVSPropertyOp17
 70
     1
102
RTVSPropertyOp18
 70
     1
102
RTVSPropertyOp19
 70
     1
102
RTVSPropertyOp20
 70
     1
102
RTVSPropertyOp21
 70
     1
102
RTVSPropertyOp22
 70
     1
102
RTVSPropertyOp23
 70
     1
102
RTVSPropertyOp24
 70
     1
102
RTVSPropertyOp25
 70
     1
102
RTVSPropertyOp26
 70
     1
102
RTVSPropertyOp27
 70
     1
102
RTVSPropertyOp28
 70
     1
102
RTVSPropertyOp29
 70
     1
102
RTVSPropertyOp30
 70
     1
102
RTVSPropertyOp31
 70
     1
102
RTVSPropertyOp32
 70
     1
  0
XRECORD
  5
32DC
102
{ACAD_REACTORS
330
32DB
102
}
330
32DB
100
AcDbXrecord
280
     1
102
RTVSPropertyOp0
 70
     1
102
RTVSPropertyOp1
 70
     1
102
RTVSPropertyOp2
 70
     1
102
RTVSPropertyOp3
 70
     1
102
RTVSPropertyOp4
 70
     1
102
RTVSPropertyOp5
 70
     1
102
RTVSPropertyOp6
 70
     1
102
RTVSPropertyOp7
 70
     1
102
RTVSPropertyOp8
 70
     1
102
RTVSPropertyOp9
 70
     1
102
RTVSPropertyOp10
 70
     1
102
RTVSPropertyOp11
 70
     1
102
RTVSPropertyOp12
 70
     1
102
RTVSPropertyOp13
 70
     1
102
RTVSPropertyOp14
 70
     1
102
RTVSPropertyOp15
 70
     1
102
RTVSPropertyOp16
 70
     1
102
RTVSPropertyOp17
 70
     1
102
RTVSPropertyOp18
 70
     1
102
RTVSPropertyOp19
 70
     1
102
RTVSPropertyOp20
 70
     1
102
RTVSPropertyOp21
 70
     1
102
RTVSPropertyOp22
 70
     1
102
RTVSPropertyOp23
 70
     1
102
RTVSPropertyOp24
 70
     1
102
RTVSPropertyOp25
 70
     1
102
RTVSPropertyOp26
 70
     1
102
RTVSPropertyOp27
 70
     1
102
RTVSPropertyOp28
 70
     1
102
RTVSPropertyOp29
 70
     1
102
RTVSPropertyOp30
 70
     1
102
RTVSPropertyOp31
 70
     1
102
RTVSPropertyOp32
 70
     1
  0
XRECORD
  5
32D2
102
{ACAD_REACTORS
330
32D1
102
}
330
32D1
100
AcDbXrecord
280
     1
102
RTVSPropertyOp0
 70
     1
102
RTVSPropertyOp1
 70
     1
102
RTVSPropertyOp2
 70
     1
102
RTVSPropertyOp3
 70
     1
102
RTVSPropertyOp4
 70
     1
102
RTVSPropertyOp5
 70
     1
102
RTVSPropertyOp6
 70
     1
102
RTVSPropertyOp7
 70
     1
102
RTVSPropertyOp8
 70
     1
102
RTVSPropertyOp9
 70
     1
102
RTVSPropertyOp10
 70
     1
102
RTVSPropertyOp11
 70
     1
102
RTVSPropertyOp12
 70
     1
102
RTVSPropertyOp13
 70
     1
102
RTVSPropertyOp14
 70
     1
102
RTVSPropertyOp15
 70
     1
102
RTVSPropertyOp16
 70
     1
102
RTVSPropertyOp17
 70
     1
102
RTVSPropertyOp18
 70
     1
102
RTVSPropertyOp19
 70
     1
102
RTVSPropertyOp20
 70
     1
102
RTVSPropertyOp21
 70
     1
102
RTVSPropertyOp22
 70
     1
102
RTVSPropertyOp23
 70
     1
102
RTVSPropertyOp24
 70
     1
102
RTVSPropertyOp25
 70
     1
102
RTVSPropertyOp26
 70
     1
102
RTVSPropertyOp27
 70
     1
102
RTVSPropertyOp28
 70
     1
102
RTVSPropertyOp29
 70
     1
102
RTVSPropertyOp30
 70
     1
102
RTVSPropertyOp31
 70
     1
102
RTVSPropertyOp32
 70
     1
  0
XRECORD
  5
32C6
102
{ACAD_REACTORS
330
32C5
102
}
330
32C5
100
AcDbXrecord
280
     1
102
RTVSPropertyOp0
 70
     1
102
RTVSPropertyOp1
 70
     1
102
RTVSPropertyOp2
 70
     1
102
RTVSPropertyOp3
 70
     1
102
RTVSPropertyOp4
 70
     1
102
RTVSPropertyOp5
 70
     1
102
RTVSPropertyOp6
 70
     1
102
RTVSPropertyOp7
 70
     1
102
RTVSPropertyOp8
 70
     1
102
RTVSPropertyOp9
 70
     1
102
RTVSPropertyOp10
 70
     1
102
RTVSPropertyOp11
 70
     1
102
RTVSPropertyOp12
 70
     1
102
RTVSPropertyOp13
 70
     1
102
RTVSPropertyOp14
 70
     1
102
RTVSPropertyOp15
 70
     1
102
RTVSPropertyOp16
 70
     1
102
RTVSPropertyOp17
 70
     1
102
RTVSPropertyOp18
 70
     1
102
RTVSPropertyOp19
 70
     1
102
RTVSPropertyOp20
 70
     1
102
RTVSPropertyOp21
 70
     1
102
RTVSPropertyOp22
 70
     1
102
RTVSPropertyOp23
 70
     1
102
RTVSPropertyOp24
 70
     1
102
RTVSPropertyOp25
 70
     1
102
RTVSPropertyOp26
 70
     1
102
RTVSPropertyOp27
 70
     1
102
RTVSPropertyOp28
 70
     1
102
RTVSPropertyOp29
 70
     1
102
RTVSPropertyOp30
 70
     1
102
RTVSPropertyOp31
 70
     1
102
RTVSPropertyOp32
 70
     1
  0
XRECORD
  5
32DE
102
{ACAD_REACTORS
330
32DD
102
}
330
32DD
100
AcDbXrecord
280
     1
102
RTVSPropertyOp0
 70
     1
102
RTVSPropertyOp1
 70
     1
102
RTVSPropertyOp2
 70
     1
102
RTVSPropertyOp3
 70
     1
102
RTVSPropertyOp4
 70
     1
102
RTVSPropertyOp5
 70
     1
102
RTVSPropertyOp6
 70
     1
102
RTVSPropertyOp7
 70
     1
102
RTVSPropertyOp8
 70
     1
102
RTVSPropertyOp9
 70
     1
102
RTVSPropertyOp10
 70
     1
102
RTVSPropertyOp11
 70
     1
102
RTVSPropertyOp12
 70
     1
102
RTVSPropertyOp13
 70
     1
102
RTVSPropertyOp14
 70
     1
102
RTVSPropertyOp15
 70
     1
102
RTVSPropertyOp16
 70
     1
102
RTVSPropertyOp17
 70
     1
102
RTVSPropertyOp18
 70
     1
102
RTVSPropertyOp19
 70
     1
102
RTVSPropertyOp20
 70
     1
102
RTVSPropertyOp21
 70
     1
102
RTVSPropertyOp22
 70
     1
102
RTVSPropertyOp23
 70
     1
102
RTVSPropertyOp24
 70
     1
102
RTVSPropertyOp25
 70
     1
102
RTVSPropertyOp26
 70
     1
102
RTVSPropertyOp27
 70
     1
102
RTVSPropertyOp28
 70
     1
102
RTVSPropertyOp29
 70
     1
102
RTVSPropertyOp30
 70
     1
102
RTVSPropertyOp31
 70
     1
102
RTVSPropertyOp32
 70
     1
  0
ENDSEC
  0
EOF
